Conditions

Skeleton

Conditions

tabs

by  HEBEALMEIDA

save to print version add songbook text version e-mail correct tuner
chordsukulelecavacokeyboardtabbassdrumsharmonicaflute Guitar Pro
close

there isn't a video lesson for this song

chords

Skeleton

	  		

Intro 
Guitar 1: 
D||--------7-------9-------10--------| 
A||--0---0---0---0---0---0----0---0--| 
F||----7-------7-------7--------7----| 
C||----------------------------------| x4 
G||----------------------------------| 
C||----------------------------------| 



Pre-Verse 
Guitar 1: 
D||-------1414----1515----1414----1212----12-----| 
A||--1515------15------15------15------15----15--| 
F||----------------------------------------------| 
C||----------------------------------------------| x3 
G||----------------------------------------------| 
C||----------------------------------------------| 


D||----------------171717-------------1717------| 
A||--141414-151515--------141414-1515------15~--| 
F||---------------------------------------------| 
C||---------------------------------------------| 
G||---------------------------------------------| 
C||---------------------------------------------| 


Guitar 2: 
D||---------------------------------------------|--------------------------------| 
A||---------------------------------------------|--------------------------------| 
F||-----7777------7777/9------7777------7777/9--|-----7777---121111111111111111--| 
C||--99-xxxx---99-xxxx/x---99-xxxx---99-xxxx/x--|--55-xxxx---x-x-x-x-x-x-x-x-x---| 
G||--99-5555---99-5555/7---99-5555---99-5555/7--|--55-5555---109-9-9-9-9-9-9-9---| 
C||--99--------99----------99--------99---------|--55----------------------------| 


D||-------------------------------------| 
A||--------------------------------10~--| 
F||------666-777-1414141414141414--11~--| 
C||--777-xxx-xxx-x-x-x-x-x-x-x-x---x----| 
G||--777-444-555-1212121212121212--9~~--| 
C||--777--------------------------------| 



Verse 
Guitar 1: 
D||-------------------------------|--------------------------------| 
A||-------------------------------|--------------------------------| 
F||-------------------------------|--------------------------------| 
C||-------------------------------|--------------------------------| 
G||--2~--/-5~--/--9~--\-5~--/-7~--|--2~--/-12~--\--7~--/-9~--5/7~--| 
C||-------------------------------|--------------------------------| 


D||------|-------------------------------|--------------------------------| 
A||------|-------------------------------|--------------------------------| 
F||------|-------------------------------|--------------------------------| 
C||------|-------------------------------|--------------------------------| 
G||--2~--|--2~--/-5~--/--9~--\-5~--/-7~--|--2~--/-12~--\--7~--/-9~--5/7~--| 
C||------|-------------------------------|--------------------------------| 



Guitar 2: 
D||-------------------------------------------------| 
A||--------------------------------------------10~--| 
F||--------------------------------------------11~--| 
C||--55--555--555--555--577--777--777--777--7--x----| 
G||--55--555--555--555--577--777--777--777--7--9~~--| 
C||--55--555--555--555--577--777--777--777--7-------| 


D||-------------------------------------------| 
A||-------------------------------------------| 
F||-------------------------------------------| 
C||--55--555--555--555--577--777--777--7-777--| 
G||--55--555--555--555--577--777--777--7-777--| 
C||--55--555--555--555--577--777--777--7-777--| 
                                         ... 



Pre-Chorus 
Guitar 1: 
D||------------------------------------------------------------------| 
A||------------------------------------------------------------------| 
F||--7-77-7777-77-7776-66-6666-66-666--6-66-666-7-77-777-9-99-9999\--| 
C||--x-xx-xxxx-xx-xxxx-xx-xxxx-xx-xxx--------------------------------| 
G||--5-55-5555-55-5554-44-4444-44-444--------------------------------| 
C||------------------------------------------------------------------| 
                                                              ... 

Guitar 2: 
D||-------------------------------------------------------------------| 
A||-------------------------------------------------------------------| 
F||-------------------------------------------------------------------| 
C||--5-----5---5-----5-----5---5-----7-----7---7-----7-----7---7------| 
G||--5-----5---5-----5-----5---5-----7-----7---7-----7-----7---7------| 
C||--5---5-5-5-5-5-5-5---5-5-5-5-5-5-7---7-7-7-7-7-7-7---7-7-7-7-7-7--| 
         .   .   . .     .   .   . .     .   .   . .     .   .   . . 


D||------------------------------------------------------| 
A||------------------------------------------------------| 
F||------------------------------------------------------| 
C||--9-----9---9-----9-----9---9-----5-----5---5-----5\--| 
G||--9-----9---9-----9-----9---9-----5-----5---5-----5\--| 
C||--9---9-9-9-9-9-9-9---9-9-9-9-9-9-5---5-5-5-5-5-5-5\--| 
         .   .   . .     .   .   . .     .   .   . . 



Chorus 
Guitar 1: 
D||-------------------------------------------------------| 
A||-------------------------------------------------------| 
F||--44444444-6666-7777-11111111111111111111111111111111--| 
C||--xxxxxxxx-xxxx-xxxx-x-x-x-x-x-x-x-x-x-x-x-x-x-x-x-x---| 
G||--22222222-4444-5555-9-9-9-9-9-9-9-9-9-9-9-9-9-9-9-9---| 
C||-------------------------------------------------------| 


D||------------------------------------------------------| 
A||--------------------------7-10-7---7---------7--------| 
F||--9999999999999999--7---7--------7---9-7-9-7---7-9-7--| 
C||--xxxxxxxxxxxxxxxx----9-------------------------------| x2 
G||--7777777777777777------------------------------------| 
C||------------------------------------------------------| 


Guitar 2: 
D||------------------------------------------------------------------------| 
A||------------------------------------------------------------------------| 
F||------------------------------------------------------------------------| 
C||------------------------------------------------------------------------| x2 
G||------------------------------------------------------------------------| 
C||--9999999999999999-0000000000000000-7777777777777777-55555555h77777777--| 
                                                        .. . ..   ... ... 

Guitar 2: 
D||------| 
A||------| 
F||------| 
C||------| 
G||------| 
C||--9\--| 


Guitar 1: 
D||-------1414----1515----1414----1212----12-----| 
A||--1515------15------15------15------15----15--| 
F||----------------------------------------------| 
C||----------------------------------------------| 
G||----------------------------------------------| 
C||----------------------------------------------| 



Pre-Verse 
Guitar 1: 
D||-------1414----1515----1414----1212----12-----| 
A||--1515------15------15------15------15----15--| 
F||----------------------------------------------| 
C||----------------------------------------------| x3 
G||----------------------------------------------| 
C||----------------------------------------------| 


D||----------------171717-------------1717------| 
A||--141414-151515--------141414-1515------15~--| 
F||---------------------------------------------| 
C||---------------------------------------------| 
G||---------------------------------------------| 
C||---------------------------------------------| 


Guitar 2: 
D||---------------------------------------------|--------------------------------| 
A||---------------------------------------------|--------------------------------| 
F||-----7777------7777/9------7777------7777/9--|-----7777---121111111111111111--| 
C||--99-xxxx---99-xxxx/x---99-xxxx---99-xxxx/x--|--55-xxxx---x-x-x-x-x-x-x-x-x---| 
G||--99-5555---99-5555/7---99-5555---99-5555/7--|--55-5555---109-9-9-9-9-9-9-9---| 
C||--99--------99----------99--------99---------|--55----------------------------| 


D||----------------------------------------| 
A||-----------------------------------10~--| 
F||-------6~-6-7~-7-1414141414141414--11~--| 
C||--7~-7-x--x-x~-x-x-x-x-x-x-x-x-x---x----| 
G||--7~-7-4~-4-5~-5-1212121212121212--9~~--| 
C||--7~-7----------------------------------| 



Verse 
Guitar 1: 
D||-------------------------------|--------------------------------| 
A||-------------------------------|--------------------------------| 
F||-------------------------------|--------------------------------| 
C||-------------------------------|--------------------------------| 
G||--2~--/-5~--/--9~--\-5~--/-7~--|--2~--/-12~--\--7~--/-9~--5/7~--| 
C||-------------------------------|--------------------------------| 


D||------|-------------------------------|--------------------------------| 
A||------|-------------------------------|--------------------------------| 
F||------|-------------------------------|--------------------------------| 
C||------|-------------------------------|--------------------------------| 
G||--2~--|--2~--/-5~--/--9~--\-5~--/-7~--|--2~--/-12~--\--7~--/-9~--5/7~--| 
C||------|-------------------------------|--------------------------------| 



Guitar 2: 
D||-------------------------------------------------| 
A||--------------------------------------------10~--| 
F||--------------------------------------------11~--| 
C||--55--555--555--555--577--777--777--777--7--x----| 
G||--55--555--555--555--577--777--777--777--7--9~~--| 
C||--55--555--555--555--577--777--777--777--7-------| 


D||-------------------------------------------| 
A||-------------------------------------------| 
F||-------------------------------------------| 
C||--55--555--555--555--577--777--777--7-777--| 
G||--55--555--555--555--577--777--777--7-777--| 
C||--55--555--555--555--577--777--777--7-777--| 
                                         ... 


Pre-Chorus 
Guitar 1: 
D||--------------------------------------------------------------------------------| 
A||--------------------------------------------------------------------------------| 
F||--7-77-7777-77-7776-66-6666-66-666--6-66-666-7-77-777-9-99-9999--9-9-9-9-9-9-9--| 
C||--x-xx-xxxx-xx-xxxx-xx-xxxx-xx-xxx----------------------------------------------| 
G||--5-55-5555-55-5554-44-4444-44-444----------------------------------------------| 
C||--------------------------------------------------------------------------------| 
                                                              ...   . . . . . . . 

Guitar 2: 
D||-------------------------------------------------------------------| 
A||-------------------------------------------------------------------| 
F||-------------------------------------------------------------------| 
C||--5-----5---5-----5-----5---5-----7-----7---7-----7-----7---7------| 
G||--5-----5---5-----5-----5---5-----7-----7---7-----7-----7---7------| 
C||--5---5-5-5-5-5-5-5---5-5-5-5-5-5-7---7-7-7-7-7-7-7---7-7-7-7-7-7--| 
         .   .   . .     .   .   . .     .   .   . .     .   .   . . 


D||--------------------------------------------------------------------| 
A||--------------------------------------------------------------------| 
F||--------------------------------------------------------------------| 
C||--9-----9---9-----9-----9---9-----5-----5---5-----5-----------------| 
G||--9-----9---9-----9-----9---9-----5-----5---5-----5-----------------| 
C||--9---9-9-9-9-9-9-9---9-9-9-9-9-9-5---5-5-5-5-5-5-5--5-5-5-5-5-5-5--| 
         .   .   . .     .   .   . .     .   .   . .    . . . . . . . 


Chorus 
Guitar 1: 
D||-------------------------------------------------------| 
A||-------------------------------------------------------| 
F||--44444444-6666-7777-11111111111111111111111111111111--| 
C||--xxxxxxxx-xxxx-xxxx-x-x-x-x-x-x-x-x-x-x-x-x-x-x-x-x---| 
G||--22222222-4444-5555-9-9-9-9-9-9-9-9-9-9-9-9-9-9-9-9---| 
C||-------------------------------------------------------| 


D||------------------------------------------------------| 
A||--------------------------7-10-7---7---------7--------| 
F||--9999999999999999--7---7--------7---9-7-9-7---7-9-7--| 
C||--xxxxxxxxxxxxxxxx----9-------------------------------| x2 
G||--7777777777777777------------------------------------| 
C||------------------------------------------------------| 


Guitar 2: 
D||------------------------------------------------------------------------| 
A||------------------------------------------------------------------------| 
F||------------------------------------------------------------------------| 
C||------------------------------------------------------------------------| x2 
G||------------------------------------------------------------------------| 
C||--9999999999999999-0000000000000000-7777777777777777-55555555h77777777--| 
                                                        .. . ..   ... ... 


Bridge 
Guitar 1: 
D||-------1414----1515----1414----1212----12-----| 
A||--1515------15------15------15------15----15--| 
F||----------------------------------------------| 
C||----------------------------------------------| x3 
G||----------------------------------------------| 
C||----------------------------------------------| 


D||----------------171717-------------1717------| 
A||--141414-151515--------141414-1515------15~--| 
F||---------------------------------------------| 
C||---------------------------------------------| 
G||---------------------------------------------| 
C||---------------------------------------------| 


Guitar 2: 
D||-------------------------------------------------------------------------| 
A||-------------------------------------------------------------------------| 
F||-------------------------------------------------------------------------| 
C||--99999999999999999999999999999999-5555555555555555-7777777777777777-9~--| 
G||--99999999999999999999999999999999-5555555555555555-7777777777777777-9~--| 
C||--99999999999999999999999999999999-5555555555555555-7777777777777777-9~--| 
                                                        ..... ..... . . 



Guitar 1: 
D||-----------------------------------------------------------------------------------| 
A||-----------------------------------------------------------------------------------| 
F||--7-777777-7-777777-9-999999-9-999999-10-101010101010-9-999999-7-777777-6-6666666--| 
C||--x-xxxxxx-x-xxxxxx-x-xxxxxx-x-xxxxxx-x--x-x-x-x-x-x--x-xxxxxx-x-xxxxxx-x-xxxxxxx--| 
G||--5-555555-5-555555-7-777777-7-777777-8--8-8-8-8-8-8--7-777777-5-555555-4-4444444--| 
C||-----------------------------------------------------------------------------------| 


Guitar 2: 
D||-------------------------------------------------------------------| 
A||-------------------------------------------------------------------| 
F||-------------------------------------------------------------------| 
C||--5-----5---5-----5-----5---5-----7-----7---7-----7-----7---7------| 
G||--5-----5---5-----5-----5---5-----7-----7---7-----7-----7---7------| 
C||--5---5-5-5-5-5-5-5---5-5-5-5-5-5-7---7-7-7-7-7-7-7---7-7-7-7-7-7--| 
         .   .   . .     .   .   . .     .   .   . .     .   .   . . 


D||--------------------------------------------------------------------| 
A||--------------------------------------------------------------------| 
F||--------------------------------------------------------------------| 
C||--9-----9---9-----9-----9---9-----5-----5---5-----5-----------------| 
G||--9-----9---9-----9-----9---9-----5-----5---5-----5-----------------| 
C||--9---9-9-9-9-9-9-9---9-9-9-9-9-9-5---5-5-5-5-5-5-5--5-5-5-5-5-5-5--| 
         .   .   . .     .   .   . .     .   .   . .    . . . . . . . 


Guitar 1: 
D||-----------------------------------------------------------------------| 
A||-----------------------------------------------------------------------| 
F||--11-111111111111-11-111111111111-9-999999-9-999999-7-777777-6-666666--| 
C||--x--x-x-x-x-x-x--x--x-x-x-x-x-x--x-xxxxxx-x-xxxxxx-x-xxxxxx-x-xxxxxx--| 
G||--9--9-9-9-9-9-9--9--9-9-9-9-9-9--7-777777-7-777777-5-555555-4-444444--| 
C||-----------------------------------------------------------------------| 


Guitar 2: 
D||-------------------------------------------------------------| 
A||-------------------------------------------------------------| 
F||-------------------------------------------------------------| 
C||--5-555555-5-555555-7-777777-7-777777-9-999999-9-999999--7\--| 
G||--5-555555-5-555555-7-777777-7-777777-9-999999-9-999999--7\--| 
C||--5-555555-5-555555-7-777777-7-777777-9-999999-9-999999--7\--| 



Interlude 
Guitar 1: 
D||--14~-----14----15-14----14~-----14--------| 
A||-------15----15-------15------15----14-----| 
F||-------------------------------------------| 
C||-------------------------------------------| 
G||-------------------------------------------| 
C||-------------------------------------------| 


Guitar 2: 
D||-------------------------------------------| 
A||-------------------------------------------| 
F||-------------------------------------------| 
C||---------------------------------------7~--| 
G||---------------------------------------7~--| 
C||---------------------------------------7~--| 
                                          . 


Chorus 
Guitar 1: 
D||-------------------------------------------------------| 
A||-------------------------------------------------------| 
F||--44444444-6666-7777-11111111111111111111111111111111--| 
C||--xxxxxxxx-xxxx-xxxx-x-x-x-x-x-x-x-x-x-x-x-x-x-x-x-x---| 
G||--22222222-4444-5555-9-9-9-9-9-9-9-9-9-9-9-9-9-9-9-9---| 
C||-------------------------------------------------------| 


D||------------------------------------------------------| 
A||--------------------------7-10-7---7---------7--------| 
F||--9999999999999999--7---7--------7---9-7-9-7---7-9-7--| 
C||--xxxxxxxxxxxxxxxx----9-------------------------------| x2 
G||--7777777777777777------------------------------------| 
C||------------------------------------------------------| 


Guitar 2: 
D||------------------------------------------------------------------------| 
A||------------------------------------------------------------------------| 
F||------------------------------------------------------------------------| 
C||------------------------------------------------------------------------| x2 
G||------------------------------------------------------------------------| 
C||--9999999999999999-0000000000000000-7777777777777777-55555555h77777777--| 
                                                        .. . ..   ... ... 


Outro 
Guitar 1: 
D||------7---9---10----| 
A||--0-0---0---0----0--| 
F||--------------------| 
C||--------------------| x8 
G||--------------------| 
C||--------------------| 


Guitar 2: 
D||--------------------------------------------------------------------| 
A||--------------------------------------------------------------------| 
F||--------------------------------------------------------------------| 
C||--9---9---9---9-9-9---9---9-9-9-9-5---5---5----5-5-7---7---7-7-7-7--| 
G||--9---9---9---9-9-9---9---9-9-9-9-5---5---5----5-5-7---7---7-7-7-7--| 
C||--9---9---9---9-9-9---9---9-9-9-9-5---5---5----5-5-7---7---7-7-7-7--| 


D||--------------------------------------------------------------------| 
A||--------------------------------------------------------------------| 
F||--------------------------------------------------------------------| 
C||--9---9---9---9-9-9---9---9---99995---5---5----5-5-7-7-7-7-7-7-7-7--| 
G||--9---9---9---9-9-9---9---9---99995---5---5----5-5-7-7-7-7-7-7-7-7--| 
C||--9---9---9---9-9-9---9---9---99995---5---5----5-5-7-7-7-7-7-7-7-7--| 



Guitar 1: 
D||--------7-------9-------10--------| 
A||--0---0---0---0---0---0----0---0--| 
F||----7-------7-------7--------7----| 
C||----------------------------------| x4 
G||----------------------------------| 
C||----------------------------------| 


Guitar 2: 
D||------| 
A||------| 
F||------| 
C||--9~--| 
G||--9~--| 
C||--9~--| 
 
		  

See also:

tabs Red Hot Chili Peppers - Tell Me Baby tabs Red Hot Chili Peppers - Otherside (ver. 2) tabs Red Hot Chili Peppers - All Around The World tabs Paramore - Crushcrushcrush tabs Red Hot Chili Peppers - Venice Queen tabs Good Charlotte - Lifestyles of the Rich and Famous
e-chords

Other versions:

tabs The Front Bottoms - Skeleton tabs Conditions - Skeleton tabs Papa Roach - Skeletons tabs The Amity Affliction - Skeletons tabs Slayer - Skeletons Of Society
auto scroll beats size up size down change color hide chords drawings
tab show chords e-chords YouTube Clip e-chords hide all tabs e-chords go to top tab

share