Colour Haze

House Of Rushammon

Colour Haze

tabs

by  HEBEALMEIDA

save to print version add songbook text version e-mail correct tuner
chordsukulelecavacokeyboardtabbassdrumsharmonicaflute Guitar Pro
close

there isn't a video lesson for this song

chords

House Of Rushammon

	  		
  
Intro: 
   
e|---------------------------------------------------------------------------| 
B|------5h6p5-------------5-8p6p5------------5h6p5----------5----------------| 
G|----7-------7-5------5----------5--------7-------7-5-----------------------|Repeat this part once 
D|-----------------5h7----------------------------------5h7---5-5------------| 
A|---------------------------------------------------------------------------| 
D|-0-----------------------------------0-------------------------------------| 

e|----------------------------------------------------------------------------------------------| 
B|----8h10-8-6-5-5h6-6-----8h10-8-6-5-6---8h10-8-6-5-5h6p5-----------5---5h6p5---------5--------| 
G|---------------------------------------------------------7p5h7-5h7---7-------7-5--------5-5h7-| 
D|----------------------------------------------------------------------------------5h7---------| 
A|----------------------------------------------------------------------------------------------| 
D|-0--------------------0---------------0-------------------------------------------------------| 

e|----10--10h12--12h13-12-10-------10--------12h13p12p10--------10-----------| 
B|------10-----10------------10h11---10---10------------10-10h11---10-10-----| 
G|-----------------------------------------------------------------------10--| 
D|---------------------------------------------------------------------------| 
A|---------------------------------------------------------------------------| 
D|-0------------------------------------0------------------------------------| 

e|---10--10h12----12h13-12-10-------10--------------------------------------------| 
B|-----10------10-------------10h11---10-10h11p10-------------10------------------| 
G|------------------------------------------------12-10-10h12----10-9h10p9--------| 
D|-------------------------------------------------------------------------10/12--| 
A|--------------------------------------------------------------------------------| 
D|-0-------------------------------------0------------------------0------------0--| 
- Rest of the Intro is the Verse-Part played once without vocals- 

Verse: 
- It's a bit hard to tab this, listen to the Song to get the stroking right - 
- First and Second Verse are same on the guitar - 
e|---------------------------------------------------------------------------| 
B|---------------------------------------------------------------------------| 
G|------10---1010--10-10---9-109----9--7---7-7-------------------------------| 
D|------0----0-0---0--0----0-0-0----0--0---0-0-------------------------------| 
A|------0----0-0---12-12---0-0-0-10----8---8-8----7h8p7p0--------------------| 
D|-0-0-----------0----0----------0-----0---0-0-------------------------------| 
       We take the..       to the.. ..mon 

e|---------------------------------------------------------------------------| 
B|---------------------------------------------------------------------------| 
G|------10---1010--10-10---9-109----9--7-------------------------------------| 
D|------0----0-0---0--0----0-0-0----0--0-----------7-7h8-7-------------------| 
A|------0----0-0---0--12---0-0-0-10----8-------------------7-7h8-------------| 
D|-0-0-----------0----0----------0-----0-------------------------------------| 
     Slaying the...     ...till thei..gone 

e|---------------------------------------------------------------------------| 
B|---------------------------------------------------------------------------| 
G|-----10---1010-12p10--12/14-12-10-9-9--9-7---------------------------------| 
D|-----0----0-0---0-----0------0--0-0-0--0-0--10-10-10-10-8-8-7--------------| 
A|-----0----0-0---0-----0------0--0-0-10---8---------------------------------| 
D|-0-0--------------------------------0----0---------------------------------| 
           Sailing arch noah to the ...... son    

e|---------------------------------------------------------------------------| 
B|---------------------------------------------------------------------------| 
G|-----10--10----10-10-10----10--10--9---9--9--9---7-------------------------| 
D|-----0---10----10-10-10h12-10--10--0---0--0--0---0-------------------------| 
A|-----0---10h12-10-12-10----10--12--0---10-10-10--8------8----7-------------| 
D|-0-0-----0-----0--0--0-----0---0---0---0--0--0---0--0-0---0-0--------------| 
        Looking from outside...... world ........thrown 

Refrain: 

e|---------------------------------------------------------------------------| 
B|---------------------------------------------------------------------------| 
G|-7--7-7-7b--7-7--7-7-7-7b--7-7----5-5--5-5--5/7----------5-----------------| 
D|-x--x-x-x---x-x--x-x-x-x---x-x----3-3--3-3--3/5------5-----7---------------| 
A|-5--5-5-5---5-5--5-5-5-5---5-5----3-3--3-3--3/5--5h7---7-------------------| 
D|-0--0-0-0---0-0--0-0-0-0---0-0----3-3--3-3--3/5----------------------------| 
   Sitting with Jesus in the house of rushammon    
e|---------------------------------------------------------------------------| 
B|---------------------------------------------------------------------------| 
G|-7--7-7-7b--7-7--7-7-7-7b--7-7----5-5--5-5--5/7----------------------------| 
D|-x--x-x-x---x-x--x-x-x-x---x-x----3-3--3-3--3/5--5-5-5h7-5-----------------| 
A|-5--5-5-5---5-5--5-5-5-5---5-5----3-3--3-3--3/5------------5-5h7-----------| 
D|-0--0-0-0---0-0--0-0-0-0---0-0----3-3--3-3--3/5----------------------------| 
    Painting the walls   and   your   colored sky 
e|---------------------------------------------------------------------------| 
B|---------------------------------------------------------------------------| 
G|-7--7-7-7b--7-7--7-7-7-7b--7-7----5-5--5-5--5/7----------5-----------------| 
D|-x--x-x-x---x-x--x-x-x-x---x-x----3-3--3-3--3/5------5-----7---------------| 
A|-5--5-5-5---5-5--5-5-5-5---5-5----3-3--3-3--3/5--5h7---7-------------------| 
D|-0--0-0-0---0-0--0-0-0-0---0-0----3-3--3-3--3/5----------------------------| 
 They've burned down his cross, the cruz..of fate 

e|---------------------------------------------------------------------------| 
B|---------------------------------------------------------------------------| 
G|-7--7-7-7b--7-7--7-7-7-7b--7-7----5-5--5-5--5/7----------------------------| 
D|-x--x-x-x---x-x--x-x-x-x---x-x----3-3--3-3--3/5--5-5-5h7-5-----------------| 
A|-5--5-5-5---5-5--5-5-5-5---5-5----3-3--3-3--3/5------------5-5h7-----------| 
D|-0--0-0-0---0-0--0-0-0-0---0-0----3-3--3-3--3/5----------------------------| 
   To set a new flame               to start once again 


Second Verse  

Second Refrain 

"Bridge": 
  
e|---------------------------------------------------------------------------| 
B|---------------------------------------------------------------------------| 
G|-5/7-7-7-7-7--x-x-5/7-7-7-7-7-x-x-5-5-x-x-3--3-3-x-3---3-------------------| 
D|-5/7-7-7-7-7--x-x-5/7-7-7-7-7-x-x-5-5-x-x-3--3-3-x-3---3-------------------|Repeat till solo starts 
A|-3/5-5-5-5-5--x-x-3/5-5-5-5-5-x-x-3-3-x-x-1--1-1-x-1h3-1-------------------| 
D|---------------------------------------------------------------------------| 
   And if so               I find my own    desert 


Solo: 

- Basically the intro again, just a little real Solo Party included -  

e|---------------------------------------------------------------------------| 
B|------5h6p5-------------5-8p6p5------------5h6p5----------5----------------| 
G|----7-------7-5------5----------5--------7-------7-5-----------------------| 
D|-----------------5h7----------------------------------5h7---5-5------------| 
A|---------------------------------------------------------------------------| 
D|-0-----------------------------------0-------------------------------------| 

e|---------------------------------------------------------------------------| 
B|------5h6p5-------------5-8p6p5------------5h6p5----------5----------------| 
G|----7-------7-5------5----------5--------7-------7-5-----------------------| 
D|-----------------5h7----------------------------------5h7---5-5------------| 
A|---------------------------------------------------------------------------| 
D|-0-----------------------------------0-------------------------------------| 

e|----------------------------------------------------------------------------------------------| 
B|----8h10-8-6-5-5h6-6-----8h10-8-6-5-6---8h10-8-6-5-5h6p5-----------5---5h6p5---------5--------| 
G|---------------------------------------------------------7p5h7-5h7---7-------7-5--------5-5h7-| 
D|----------------------------------------------------------------------------------5h7---------| 
A|----------------------------------------------------------------------------------------------| 
D|-0--------------------0---------------0-------------------------------------------------------| 

e|----10--10h12--12h13-12-10-------10--------12h13p12p10--------10-----------| 
B|------10-----10------------10h11---10---10------------10-10h11---10-10-----| 
G|-----------------------------------------------------------------------10--| 
D|---------------------------------------------------------------------------| 
A|---------------------------------------------------------------------------| 
D|-0------------------------------------0------------------------------------| 

e|---10--10h12----12h13-12-10-------10--------------------------------------------| 
B|-----10------10-------------10h11---10-10h11p10-------------10------------------| 
G|------------------------------------------------12-10-10h12----10-9h10p9--------| 
D|-------------------------------------------------------------------------10/12--| 
A|--------------------------------------------------------------------------------| 
D|-0------------------------------------------------------------------------------| 

e|-10----10----10------------------------------------------------------------| 
B|-10----10----10------------------------------------------------------------| 
G|-12b14-12b14-12b14---12b14r12-10-12b14r12-10--9h10p9----9------------------| 
D|-----------------------------------------------------12---10-10/12---------| 
A|---------------------------------------------------------------------------| 
D|---------------------------------------------------------------------------| 

e|-----------------------5---------------------------------------------------| 
B|---------------------------------------------------------------------------| 
G|--------------------7------------------------------------------------------| 
D|-12-12------------0--------------------------------------------------------| 
A|-------12h13p12\5----------------------------------------------------------| 
D|---------------------------------------------------------------------------| 
- This is how far I tend to play the Solo the same, after this its just improvising- 

End Chords: 

e|---------------------------------------------------------------------------| 
B|---------------------------------------------------------------------------| 
G|-5/7-7-7-7-7--x-x-5/7-7-7-7-7-x-x-9-9-x-x-10-10-10-x-10-10-10--------------| 
D|-5/7-7-7-7-7--x-x-5/7-7-7-7-7-x-x-9-9-x-x-10-10-10-x-10-10-10--------------| Repeat  
A|-3/5-5-5-5-5--x-x-3/5-5-5-5-5-x-x-7-7-x-x-8--8--8- x-8--8--8---------------| 
D|---------------------------------------------------------------------------| 



************************************ 

| /   slide up 
| \   slide down 
| h   hammer-on 
| p   pull-off 
| ~   vibrato 
| +   harmonic 
| x   Mute note 
| b   Bend 
| pb  Pre-bend 
| br  Bend release 
| pbr Pre-bend release 
| brb Bend release bend 

************************************ 
		  

See also:

tabs Tokio Hotel - Wo Sind Eure Hnde tabs Tokio Hotel - Screamin' tabs Emil Bulls - Between The Devil And The Deep Blue Sea tabs Tokio Hotel - Monsoon tabs Hüsker Dü - Somewhere tabs Tokio Hotel - Stop Babe
e-chords

Other versions:

tabs Colour Haze - House Of Rushammon
auto scroll beats size up size down change color hide chords drawings
tab show chords e-chords YouTube Clip e-chords hide all tabs e-chords go to top tab

share