Coldplay

home > Coldplay

Clocks (solos do teclado) Tab

Coldplay

Difficulty: BeginnerBeginner

by CDF+da+guitarra

tuner correct add songbook print version text version save to e-mail
chordsukulelecavacokeyboardtabbassdrumsharmonicsflute Guitar Pro
chords

Clocks (solos do teclado)

  		Artista: Coldplay  
Música : Clocks 
   
Introdução: 
 
e|-11----11----11----9----9----9---9----9----9----8----8-----8----| 
b|---11----11----11---11---11---11--11---11---11----9----9-----9--| 
G|-----12----12---------10---10-------10---10--------10---10------| 
D|----------------------------------------------------------------| 
A|----------------------------------------------------------------| 
E|----------------------------------------------------------------| 
 
Outro: 
 
e|-16-15---16-15---16-15-16-15----16-15----16-15-16-15----16-15----16-15-16-15----16-15----16-15| 
b|------16------16-------------14-------14-------------14-------14-------------13-------13------| 
G|----------------------------------------------------------------------------------------------| 
D|----------------------------------------------------------------------------------------------| 
A|----------------------------------------------------------------------------------------------| 
E|----------------------------------------------------------------------------------------------| 

	  

Search Paypal
auto scroll beats size up size down change color hide chords drawings
tab show chords e-chords YouTube Clip e-chords hide all tabs e-chords go to top tab