Coheed And Cambria

home > Coheed And Cambria

2s My Favorite 1 Tab

Coheed And Cambria

Difficulty: nolevelnolevel

by tercmoraes

tuner correct add songbook print version text version save to e-mail
chordsukulelecavacokeyboardtabbassdrumsharmonicsflute Guitar Pro
chords

2s My Favorite 1

  		intro/verse 

---------------------------------------------------------------------------------------------------------| 
---------------------------------------------------------------------------------------------------------| 
--7-7-7-6-6-6-6-0-4-4-4-2-2-----2/7-7-7-6-6-6-6-0-4-6-4-2-0----------------------------------------------| 
--0-0-0-0-0-0-0-0-0-0-0-0-0-4-4-0-0-0-0-0-0-0-0-0-0-0-0-0-0-2-4----4-4-4-4-4-5-4-2-----2/4-0-------------| 
------------------------------------------------------------0-2----2-2-2-2---------0-0-------------------| 
---------------------------------------------------------------------------------------------------------| 

---------------------------------------------------------------------------------------------------------| 
--------------------7-7----------------------------------------------------------------------------------| 
--7-7-7-6-6-9-9-4-4-x-x-6-6-6-6-6-6-7-7-7-7-7-7-7-7-6-6-6-6-6-6-6-6--------------------------------------| 
--0-0-0-0-0-0-0-0-0-0-0-0-0-0-0-0-0-0-0-0-0-0-0-0-0-0-0-0-0-0-0-0-0--------------------------------------| 
---------------------------------------------------------------------------------------------------------| 
---------------------------------------------------------------------------------------------------------| 

Chorus 

---------------------------------------------------------------------------------------------------------| 
---------------------------------------------------------------------------------------------------------| 
---------------------------------------------------------------------------------------------------------| 
------------------7-7-7-7-7-7-7-7-----------------4-4-4-4-4-4-4-4-----------------7-7-7-7-7-7-7-7--------| 
--5-5-5-5-5-5-5-5-5-5-5-5-5-5-5-5-7-7-7-7-7-7-7-7-2-2-2-2-2-2-2-2-5-5-5-5-5-5-5-5-5-5-5-5-5-5-5-5--------| 
--3-3-3-3-3-3-3-3-----------------5-5-5-5-5-5-5-5-----------------3-3-3-3-3-3-3-3------------------------| 

---------------------------------------------------------------------------------------------------------| 
---------------------------------------------------------------------------------------------------------| 
---------------------------------------------------------------------------------------------------------| 
---------------------------------------------------------------------------------------------------------| 
--7-7-7-7-7-7-7-7-7-7-7-7-7-7-7-7-5-5-5-5-5-5-5-5-5-5-5-5-5-5-5-5----------------------------------------| 
--5-5-5-5-5-5-5-5-5-5-5-5-5-5-5-5-3-3-3-3-3-3-3-3-3-3-3-3-3-3-3-3----------------------------------------| 

break 

---------------------------------------------------------------------------------------------------------| 
---------------------------------------------------------------------------------------------------------| 
---------------------------------------------------------------------------------------------------------| 
-4-4-4-4-4-4-4-4-----------------7-7-7-7-7-7-7-7---------------------------------------------------------| 
-2-2-2-2-2-2-2-2-7-7-7-7-7-7-7-7-5-5-5-5-5-5-5-5-5-5-5-5-5-5-5-5-----------------------------------------| 
-----------------5-5-5-5-5-5-5-5-----------------3-3-3-3-3-3-3-3-----------------------------------------| 

---------------------------------------------------------------------------------------------------------| 
---------------------------------------------------------------------------------------------------------| 
---------------------------------------------------------------------------------------------------------| 
--4-4-4-4-4-4-4-4----------------------------------------------------------------------------------------| 
--2-2-2-2-2-2-2-2-7-7-7-7-7-7-7-7-5-5-5-5-5-5-5-5-5-5-5-5-5-5-5------------------------------------------| 
------------------5-5-5-5-5-5-5-5-3-3-3-3-3-3-3-3-3-3-3-3-3-3-3------------------------------------------| 
	  

Search Paypal
auto scroll beats size up size down change color hide chords drawings
tab show chords e-chords YouTube Clip e-chords hide all tabs e-chords go to top tab