Cock Sparrer

Tough Guys

Cock Sparrer

tabs

save to print version add songbook text version e-mail correct tuner
chordsukulelecavacokeyboardtabbassdrumsharmonicaflute Guitar Pro
close

there isn't a video lesson for this song

chords

Tough Guys

	  		Intro 
 
C F G 
 
riff 1 
 
E|---------------------------------- 
B|---------------------------------- 
G|----------5--7/8 7 5-----10---12-- 
D|--10---7--------------7--10---12-- 
A|--10---------------------8----10-- 
E|--8------------------------------- 
 
riff 2 
 
E|---------------------------------- 
B|---------------------------------- 
G|--8--10--8--10--12---------------- 
D|--8--10--8--10--12---------------- 
A|--6--8---6--8---10---------------- 
E|---------------------------------- 
 
riff 3 (chorus) 
 
E|---------------------------------- 
B|---------------------------------- 
G|-------9-----7---10--12------12--- 
D|---10--9--7--7---10--12--10--12--- 
A|---10--7--7--5---8---10--10--10--- 
E|---8------5--------------8-------- 
  
 
LYRICS 
 
{riff 1} 
I know he?s not the kind, the kind that settles down 
And I know he finds it hard to keep his feet on the ground 
He goes drinking every night down the pub with all his mates 
Getting into fights staying out till late 
 
{riff 2} 
But when he comes home rolling drunk 
Don?t get the 'ump, just remember 
 
{chorus} 
Even tough guys need someone sometimes {4x} 
 
{riff 1} 
He don?t wear armani suits or shirts pressed nice and clean 
He wears doctor martens boots and dirty Levi jeans 
Your friend?s all think he?s gross and your parents hate his guts 
And once he gave you a dose but the tablets cleared it up 
 
{riff 2} 
They all say he?s just no good 
But he?s misunderstood, and remember 
 
{chorus} 
Even tough guys need someone sometimes {4x} 
 
{solo} 
 
E|----------------------------------------------------------- 
B|--------4--------------- 1--3--------3--5------------------ 
G|-5--3-----5--3--------2-----------4------------------------ 
D|------5---------5--3-----------5--------------------------- 
A|----------------------------------------------------------- 
E|----------------------------------------------------------- 
 
E|----------------------------------------------------------- 
B|-----3-4--3-------3----------3-4--3----------3-----3333333- 
G|--5---------5--3------5--5-----------5---3------5---------- 
D|----------------------------------------------------------- 
A|----------------------------------------------------------- 
E|----------------------------------------------------------- 
 
 
{riff 1} 
He drives his car to fast he don?t remember what you said 
His promises don?t last and he?s lousy in bed 
And when you?re at a party and he?s puking in the bin 
And you?re try to remember what you ever saw in him 
 
{riff 2} 
So don?t go into one  
He?s only having fun, and remember 
 
{chorus} 
Even tough guys need someone sometimes {4x} 
 
repeat till fades out... 

		  

Full key step upFull key step up
Half key step upHalf key step up
Half key step downHalf key step down
Full key step downFull key step down
hide glossary

See also:

tabs Bon Jovi - It's My Life tabs Kiss - Forever tabs Aerosmith - Dream On tabs Foo Fighters - Everlong (acústico) tabs The Doors - People Are Strange tabs The Offspring - All I Want
e-chords

Other versions:

tabs Cock Sparrer - Tough Guys
auto scroll beats size up size down change color hide chords drawings
tab show chords e-chords YouTube Clip e-chords hide all tabs e-chords go to top tab

share