Coal Chamber

Worst Enemy

Coal Chamber

tabs

by  ANG-LETRA

save to print version add songbook text version e-mail correct tuner
chordsukulelecavacokeyboardtabbassdrumsharmonicaflute Guitar Pro
close

there isn't a video lesson for this song

chords

Worst Enemy

	  		

Guitars 1 and 2 (w/ dist) 

 B|---------------------------------------| 
F#|---------------------------------------| 
 D|---------------------------------------| x8 
 A|---------12-----13---12-----10---10-12-| 
 E|---------12-----13---12-----10---10-12-| 
 A|-0-0-0-0-12-0-0-13-0-12-0-0-10-0-10-12-| 
    * * * *    * *    *    * *    * 
   
|--------------------------------------------------------------------------------------------------------| 
|                                        Pre-Chorus (00:50-00:55)                                        | 
|--------------------------------------------------------------------------------------------------------| 

Guitars 1 and 2 (w/ dist) 

 B|----------------------------|-------------------------------| 
F#|----------------------------|-------------------------------| 
 D|----------------------------|-------------------------------| 
 A|-6-5-5--6-5-5--6-5-5--6-5-5-|-6-5-5--6-5-5--8-8-8-8-8-8-8-8-| 
 E|-6-5-5--6-5-5--6-5-5--6-5-5-|-6-5-5--6-5-5--8-8-8-8-8-8-8-8-| 
 A|-6-5-5--6-5-5--6-5-5--6-5-5-|-6-5-5--6-5-5--8-8-8-8-8-8-8-8-| 

|--------------------------------------------------------------------------------------------------------| 
|                                          Chorus (00:55-01:15)                                          | 
|--------------------------------------------------------------------------------------------------------| 

Guitars 1 and 2 (w/ dist) 

 B|---------------------------------|---------------------------------| 
F#|---------------------------------|---------------------------------| 
 D|---------------------------------|---------------------------------| 
 A|-0-0-0-0-0-0-0-0-8-8-8-8-9-9-9-9-|-3-3-3-3-3-3-3-3-5-5-5-5-5-5-5-5-| 
 E|-0-0-0-0-0-0-0-0-8-8-8-8-9-9-9-9-|-3-3-3-3-3-3-3-3-5-5-5-5-5-5-5-5-| 
 A|-0-0-0-0-0-0-0-0-8-8-8-8-9-9-9-9-|-3-3-3-3-3-3-3-3-5-5-5-5-5-5-5-5-| 

 B|---------------------------------|---------------------------------| 
F#|---------------------------------|---------------------------------| 
 D|---------------------------------|---------------------------------| 
 A|---------------------------------|---------------------------------| 
 E|---------------------------------|---------------------------------| 
 A|-0-2-3-0-2-3-0-2-3-0-2-3-0-2-3-0-|-2-3-0-2-3-0-2-3-0-2-3-0-2-3-0---| 

 B|---------------------------------|---------------------------------| 
F#|---------------------------------|---------------------------------| 
 D|---------------------------------|---------------------------------| 
 A|-0-0-0-0-0-0-0-0-8-8-8-8-9-9-9-9-|-3-3-3-3-3-3-3-3-5-5-5-5-5-5-5-5-| 
 E|-0-0-0-0-0-0-0-0-8-8-8-8-9-9-9-9-|-3-3-3-3-3-3-3-3-5-5-5-5-5-5-5-5-| 
 A|-0-0-0-0-0-0-0-0-8-8-8-8-9-9-9-9-|-3-3-3-3-3-3-3-3-5-5-5-5-5-5-5-5-| 

 B|---------------------------------|---------------------------------| 
F#|---------------------------------|---------------------------------| 
 D|---------------------------------|---------------------------------| 
 A|---------------------------------|---------------------------------| 
 E|---------------------------------|---------------------------------| 
 A|-0-2-3-0-2-3-0-2-3-0-2-3-0-2-3-0-|-2-3-0-2-3-0-2-3-0-0-----0-0-----| 
                                                      * *     * * 
|--------------------------------------------------------------------------------------------------------| 
|                                         verse 2 (01:15-01:36)                                          | 
|--------------------------------------------------------------------------------------------------------| 
                                              same as VERSE 
|--------------------------------------------------------------------------------------------------------| 
|                                       Pre-Chorus 2 (01:36-01:47)                                       | 
|--------------------------------------------------------------------------------------------------------| 

Guitars 1 and 2 (w/ dist) 

 B|----------------------------|-------------------------------| 
F#|----------------------------|-------------------------------| 
 D|----------------------------|-------------------------------| x2 
 A|-6-5-5--6-5-5--6-5-5--6-5-5-|-6-5-5--6-5-5--8-8-8-8-8-8-8-8-| 
 E|-6-5-5--6-5-5--6-5-5--6-5-5-|-6-5-5--6-5-5--8-8-8-8-8-8-8-8-| 
 A|-6-5-5--6-5-5--6-5-5--6-5-5-|-6-5-5--6-5-5--8-8-8-8-8-8-8-8-| 

|--------------------------------------------------------------------------------------------------------| 
|                                         Chorus 2 (01:47-02:07)                                         | 
|--------------------------------------------------------------------------------------------------------| 

Guitars 1 and 2 (w/ dist) 

 B|---------------------------------|---------------------------------| 
F#|---------------------------------|---------------------------------| 
 D|---------------------------------|---------------------------------| 
 A|-0-0-0-0-0-0-0-0-8-8-8-8-9-9-9-9-|-3-3-3-3-3-3-3-3-5-5-5-5-5-5-5-5-| 
 E|-0-0-0-0-0-0-0-0-8-8-8-8-9-9-9-9-|-3-3-3-3-3-3-3-3-5-5-5-5-5-5-5-5-| 
 A|-0-0-0-0-0-0-0-0-8-8-8-8-9-9-9-9-|-3-3-3-3-3-3-3-3-5-5-5-5-5-5-5-5-|\ 
                                                                        x2 
 B|---------------------------------|---------------------------------|/ 
F#|---------------------------------|---------------------------------| 
 D|---------------------------------|---------------------------------| 
 A|---------------------------------|---------------------------------| 
 E|---------------------------------|---------------------------------| 
 A|-0-2-3-0-2-3-0-2-3-0-2-3-0-2-3-0-|-2-3-0-2-3-0-2-3-0-2-3-0-2-3-0---| 

|--------------------------------------------------------------------------------------------------------| 
|                                          BRIDGE (02:07-03:00)                                          | 
|--------------------------------------------------------------------------------------------------------| 

 B|---------------------------------|-----------------------------------------| 
F#|---------------------------------|-----------------------------------------| 
 D|---------------------------------|-----------------------------------------| x4 
 A|-0--1--4-1-0---------------------|-----------------------------------------| 
 E|-0--1--4-1-0---------------------|-----------------------------------------| 
 A|-0--1--4-1-0-/s12--0-0-/s12--0-0-|-/s12--0-0-/s12--0-0-/s12--0-0-/s12--0-0-| 

 B|--------------------------|--------------------------| 
F#|--------------------------|--------------------------| 
 D|--------------------------|--------------------------| 
 A|-0--1--4-1-0--0--1--4-1-0-|-0--1--4-1-0--0--1--4-1-0-| 
 E|-0--1--4-1-0--0--1--4-1-0-|-0--1--4-1-0--0--1--4-1-0-| 
 A|-0--1--4-1-0--0--1--4-1-0-|-0--1--4-1-0--0--1--4-1-0-| 

 B|---------------------------------| 
F#|---------------------------------| 
 D|---------------------------------| x8 
 A|-0---0---0---0---0---0---0---0---| 
 E|-0---0---0---0---0---0---0---0---| 
 A|-0---0---0---0---0---0---0---0---| 

|--------------------------------------------------------------------------------------------------------| 
|                                         Chorus 3 (03:00-03:20)                                         | 
|--------------------------------------------------------------------------------------------------------| 
                                            same as Chorus 2 
|--------------------------------------------------------------------------------------------------------| 
|                                          OUTRO (03:20-04:03)                                           | 
|--------------------------------------------------------------------------------------------------------| 

Guitars 1 and 2 (w/ dist) 

 B|--------------|---------------------------------| 
F#|--------------|---------------------------------| 
 D|--------------|---------------------------------| 
 A|-0-----8---9--|-3-3-3-3-3-3-3-3-5-5-5-5-5-5-5-5-| 
 E|-0-----8---9--|-3-3-3-3-3-3-3-3-5-5-5-5-5-5-5-5-| 
 A|-0-----8---9--|-3-3-3-3-3-3-3-3-5-5-5-5-5-5-5-5-| 

 B|---------------------------------|---------------------------------| 
F#|---------------------------------|---------------------------------| 
 D|---------------------------------|---------------------------------| 
 A|---------------------------------|---------------------------------| 
 E|---------------------------------|---------------------------------| 
 A|-0-2-3-0-2-3-0-2-3-0-2-3-0-2-3-0-|-2-3-0-2-3-0-2-3-0-2-3-0-2-3-0---| 

 B|---------------------------------|---------------------------------| 
F#|---------------------------------|---------------------------------| 
 D|---------------------------------|---------------------------------| 
 A|-0-0-0-0-0-0-0-0-8-8-8-8-9-9-9-9-|-3-3-3-3-3-3-3-3-5-5-5-5-5-5-5-5-| 
 E|-0-0-0-0-0-0-0-0-8-8-8-8-9-9-9-9-|-3-3-3-3-3-3-3-3-5-5-5-5-5-5-5-5-| 
 A|-0-0-0-0-0-0-0-0-8-8-8-8-9-9-9-9-|-3-3-3-3-3-3-3-3-5-5-5-5-5-5-5-5-|\ 
                                                                        x2 
 B|---------------------------------|---------------------------------|/ 
F#|---------------------------------|---------------------------------| 
 D|---------------------------------|---------------------------------| 
 A|---------------------------------|---------------------------------| 
 E|---------------------------------|---------------------------------| 
 A|-0-2-3-0-2-3-0-2-3-0-2-3-0-2-3-0-|-2-3-0-2-3-0-2-3-0-2-3-0-2-3-0---| 

 B|---------------------------------| 
F#|---------------------------------| 
 D|---------------------------------| x4 
 A|-0---0---0---0---0---0---0---0---| 
 E|-0---0---0---0---0---0---0---0---| 
 A|-0---0---0---0---0---0---0---0---| 
		  

See also:

tabs James Blunt - Cry tabs Iron Butterfly - IronButterfly-in A Gadda Da Vida tabs Stone Sour - Through glass (ver. 2) tabs Candlebox - Far behind tabs Mudvayne - World so cold tabs James Blunt - Wisemen
e-chords

Other versions:

tabs Coal Chamber - Worst Enemy
auto scroll beats size up size down change color hide chords drawings
tab show chords e-chords YouTube Clip e-chords hide all tabs e-chords go to top tab

share