Coal Chamber

Whats In Your Mind?

Coal Chamber

tabs

save to print version add songbook text version e-mail correct tuner
chordsukulelecavacokeyboardtabbassdrumsharmonicaflute Guitar Pro
close

there isn't a video lesson for this song

chords

Whats In Your Mind?

	  		
 
	TUNING: tune your guitar down as follows (A,E,A,D,G,B) 
 
    
     RIFF 1: 
 
    |-------------------------| 
    |-------------------------| 
    |-------------------------| 
    |-6--2--6--2-6--2-6--2--6-| 
    |-6--2--6--2-6--2-6--2--6-|   
    |-6--2--6--2-6--2-6--2--6-| 
 
     RIFF 2: 
 
    |-------------------------------| 
    |-------------------------------| 
    |--------------7-------5--------| 
    |-4-4--5--4-4--7--4-4--5--4-4-3-| 
    |-4-4--5--4-4--5--4-4--3--4-4-3-| 
    |-4-4--5--4-4-----4-4-----4-4-3-| 
 
     RIFF 3: 
 
    |---------------------| 
    |---------------------| 
    |---------------------| 
    |-2-----3-----4-----3-| 
    |-2-----3-----4-----3-| 
    |-2-----3-----4-----3-| 
 
     RIFF 4: 
 
    |---| 
    |---| 
    |---| 
    |-4-| 
    |-4-| 
    |-4-| 
 

		  

See also:

tabs Deftones - Change tabs Velvet Revolver - Fall to pieces tabs Darkness - I Believe in a Thing Called Love tabs Lifehouse - Blind Acoustic tabs Queens Of The Stone Age - Go with the Flow tabs Black Crowes - Remedy
e-chords

Other versions:

tabs Coal Chamber - Whats In Your Mind tabs Coal Chamber - Whats In Your Mind?
auto scroll beats size up size down change color hide chords drawings
tab show chords e-chords YouTube Clip e-chords hide all tabs e-chords go to top tab

share