Coal Chamber

What In Your Mind

Coal Chamber

tabs

save to print version add songbook text version e-mail correct tuner
chordsukulelecavacokeyboardtabbassdrumsharmonicaflute Guitar Pro
close

there isn't a video lesson for this song

chords

What In Your Mind

	  		
What's in Your Mind 
Guitar Tab by Chris (iequal***@hotmail.com) 
Tuning: Standard B 
 
VERSE 
dist. 
E|------------------------| 
B|-2--0--2--0--2-0-2--0-0-| 
 
CHORUS 
dist. 
D|-----X--------X--------X----------| 
A|-----X-5------X-6------X-5--------| 
E|-4-4-X-3--4-4-X-4--4-4-X-3--4-4-0-| 
B|-2-2------2-2------2-2------2-2-0-| 
 
BRIDGE 
dist. 
A|-4------6------8--\6------8-----10------12--\--| 
E|-4------6------8--\6------8-----10------12--\--| 
B|-2------4------6--\4------6------8------10--\--| 
 

		  

Full key step upFull key step up
Half key step upHalf key step up
Half key step downHalf key step down
Full key step downFull key step down
hide glossary

See also:

tabs Avantasia - Sign Of The Cross tabs Bloodhound Gang - Fire Water Burn (The Roof is on Fire) tabs Deftones - Change tabs Crazy Town - Buterfly tabs Stone Sour - Bother tabs Interpol - Obstacle (ver. 1)
e-chords

Other versions:

tabs Coal Chamber - What In Your Mind
auto scroll beats size up size down change color hide chords drawings
tab show chords e-chords YouTube Clip e-chords hide all tabs e-chords go to top tab

share