Coal Chamber

My Mercy

Coal Chamber

tabs

save to print version add songbook text version e-mail correct tuner
chordsukulelecavacokeyboardtabbassdrumsharmonicaflute Guitar Pro
close

there isn't a video lesson for this song

chords

My Mercy

	  		My Mercy by Coal Chamber 
Guitarist: Meegs 
Album: Chamber Music 
Dif.: 7 
Tabbed by Twiggy5 
 
NOTE: Tune down to B E A D G B or if you have a 7 string no need to tune down 
 
Intro/Verse (clean) 
A|--------2--------2---------2---------| 
E|-----2---------2--------2------------| 
B|--0--------0----------0--------1--0--| 
 
Chorus (dist.) 
D|-9-9-9-9-9-9-7-7-109--7-9--9-9-9-9--7-9-12-12-10-9--| 
A|-9-9-9-9-9-9-7-7-10-9-7-9--9-9-9-9--7-9-12-12-10-9--| 
E|-7-7-7-7-7-7-5-5--8-7-7-7--7-7-7-7--7-7-10-10--8-7--| 
B|---------8-7-5-5--8-7-7-7------8-7--7-7-10-10--8-7--| 
 
Bridge (?We our loved..?) 
D|--5-5-5-----4--4-4----| 
A|--5-5-5-----4--4-4--4-| 
E|--3-3-3-----2--2-2----| 
B|--3-3-3--0--2--2-2----| 
 
Bridge 2 (?You?ve taken my life..?) 
D|-7--7-7-1010--9-10-9-10-1210-9-7--| 
A|-7--7-7-1010--9-10-9-10-1210-9-7--| 
E|-5--5-5--8-8--7--8-7--8-10-8-7-5--| 
B|-5--5-5--8-8--7--8-7--8-10-8-7-5--| 
 
Fill 1 
b|--12--12^r10-12--| 
 
Solo 
D|-11-----7--9-11-11---------14-14-12-11-11-11-11-- 
 
Solo (cont.) 
D|--7--9---11^12^11--------14-14-12-11--| 
 
Song Structre: - 
Intro 
Verse 
Chorus 
Verse 
Chorus 
Bridge 1 
Bridge 2 
Fill 1 
Solo 
Bridge 1 
 
Very sad sad song... I just have nothing to say anymore... God ***ing dammit, but in a good way. If you have any corrections, comments or suggestions email me at [email protected] 
 

		  

Full key step upFull key step up
Half key step upHalf key step up
Half key step downHalf key step down
Full key step downFull key step down
hide glossary

See also:

tabs Avantasia - Sign Of The Cross tabs Bloodhound Gang - Fire Water Burn (The Roof is on Fire) tabs Deftones - Change tabs Crazy Town - Buterfly tabs Stone Sour - Bother tabs Interpol - Obstacle (ver. 1)
e-chords

Other versions:

tabs Coal Chamber - My Mercy
auto scroll beats size up size down change color hide chords drawings
tab show chords e-chords YouTube Clip e-chords hide all tabs e-chords go to top tab

share