Coal Chamber

Loco Album Version

Coal Chamber

tabs

save to print version add songbook text version e-mail correct tuner
chordsukulelecavacokeyboardtabbassdrumsharmonicaflute Guitar Pro
close

there isn't a video lesson for this song

chords

Loco Album Version

	  		    Artist: coal chamber 
    song: loco album (demo) version 
    Tabbed by mike lummis 
    this song is legendary and needed to be tabbed plz rate. WORK OUT HOW MANY TIMES U PLAY EACH PARTS OF THE SONG. i play this drop d but u should play drop B i think 
 
             |---------0---0---0---0---0---0---0---0--| 
  INTRO      |-------4---4---4---4---4---4---4---4----|  
  Top strings                                     repeat x12 
             |-----0---0---0---0---0---0---0---0---0--| 
             |---3---3---3---3---3---3---3---3---3----| 
                                                  repeat x12 
                    |-0 
    bottom strings  |-0         Hold this note till vocals say pull  
                    |-0 
 
             |------------------------------------------------------------ 
   main riff |-----0-2-0-2-0-2-0-2-2-3---0-2-0-2-0-2-0-2-2-3-------------- 
             |-----0-2-0-2-0-2-0-2-2-3---0-2-0-2-0-2-0-2-2-3--------------        
                    This whole part is played palm muted 
         
             |------------------------------------------------------------ 
   CHORUS    |------2-2---2--2-222222-----------1-1---1--1-111111---------  
             |------2-2---2--2-222222-----------1-1---1--1-111111--------- 
                 REPEAT X4                      REPEAT X4 AFTER 
                      
                      |----------------------------------------------------- 
  last verse          |----0-1-2-1-0-1-2------------------------------------ 
                      |----0-1-2-1-0-1-2------------------------------------         
 
                      |------7~------------8~----------------------------------- 
       SECOND PART    |------X~------------X~----------------------------------- 
                      |------5~------------6~----------------------------------- 
                      |---------------------------------------------------------  
 
        THIS IS THE ORDER THE SONG IS PLAYED 
        INTRO  and (hold note)                  
        MAIN RIFF  AND VERSE             
        CHORUS  
        MAIN RIFF AND VERSE 
        CHORUS   
        LAST VERSE PART 1 
        LAST VESRE PART 2 
        LAST VERSE PART 1 
        MAIN RIFF AND VERSE  
        CHORUS 
 
        THAT?S IT ITS PLAYED WITH REALLY LOUD BASS!!!!!!!!!!!!! 
        TABBED BY MIKE LUMMIS 
 
        Lyrics: 
        pull - steamroller rollin' through 
        my head said attached to loco 
        power up coal through the system 
        out to the right said you're in my 
        light - lock down the generator on 
        man screw down use the system 
        use the main plan full power up to 
        the point man don't *** with me 
 
        ME loco 
 
        lock down here latch the generator 
        on screw the system 
        full power hit the main plan 
 

		  

Full key step upFull key step up
Half key step upHalf key step up
Half key step downHalf key step down
Full key step downFull key step down
hide glossary

See also:

tabs Avantasia - Sign Of The Cross tabs Bloodhound Gang - Fire Water Burn (The Roof is on Fire) tabs Deftones - Change tabs Crazy Town - Buterfly tabs Stone Sour - Bother tabs Interpol - Obstacle (ver. 1)
e-chords

Other versions:

tabs Coal Chamber - Loco Album Version
auto scroll beats size up size down change color hide chords drawings
tab show chords e-chords YouTube Clip e-chords hide all tabs e-chords go to top tab

share