Coal Chamber

Friend

Coal Chamber

tabs Easy easy

save to print version add songbook text version e-mail correct tuner
chordsukulelecavacokeyboardtabbassdrumsharmonicaflute Guitar Pro
close

there isn't a video lesson for this song

chords

Friend

	  		 
Tuning - A, E, A, D, G, B 
Email  - [email protected] 
Aim    - VxXxHeDxPExXxV 
 
Legend 
. - Palm-Mute 
^ - Bend 
~ - Let Ring 
 
Intro/Verse (Bass) 
A|---------------------| 
E|---------------------| 
A|-8-8-8-7-0--8-7-8-7-0| 
 
Pre-Verse/Bridge 
A|-3-2-0-3-2-0--3-2-0-3-2-0--3-2-0| 
E|-3-2-0-3-2-0--3-2-0-3-2-0--3-2-0| 
A|-3-2-0-3-2-0--3-2-0-3-2-0--3-2-0| 
 
Chorus 
A|-6-6-6-6-5-5-5-5-0-1-2-0-1-2-0-1-2-0-1-2| 
E|-6-6-6-6-5-5-5-5-0-1-2-0-1-2-0-1-2-0-1-2| 
A|-6-6-6-6-5-5-5-5-0-1-2-0-1-2-0-1-2-0-1-2| 
                   . . . . . . . . . . . . 
 
A|-7-7-7-7-6-6-6-6-0-1-2-0-1-2-0-1-2-0-1-2| 
E|-7-7-7-7-6-6-6-6-0-1-2-0-1-2-0-1-2-0-1-2| 
A|-7-7-7-7-6-6-6-6-0-1-2-0-1-2-0-1-2-0-1-2| 
                   . . . . . . . . . . . . 
 
Pre-Bridge 
A|------------------| 
E|------------------| 
A|-3-2-0-3-2-0-3-2-0| 
 
Interlude                          X2    X2 
B|-----15--20-19-------15--20--22^-|-----| 
G|-14--------------14--------------|-----| 
D|---------------------------------|-----| 
A|---------------------------------|-0~~~| 
E|---------------------------------|-0~~~| 
A|---------------------------------|-0~~~| 
 
Pre-Chorus 
A|-8-8-8-7-0--8-7-8-7-0| 
E|-8-8-8-7-0--8-7-8-7-0| 
A|-8-8-8-7-0--8-7-8-7-0| 
 
Outro  X13 
A|-0-1-2| 
E|-0-1-2| 
A|-0-1-2| 
 
Structure 
Intro 
Preverse 
Preverse (Palm-Muted) 
Verse 
Chorus 
Verse 
Chorus 
Pre-Bridge 
Bridge 
Bridge(Palm-Muted) 
Interlude 
Pre-Chorus 
Chorus 
Outro 
 

		  

See also:

tabs Avantasia - Sign Of The Cross tabs Bloodhound Gang - Fire Water Burn (The Roof is on Fire) tabs Deftones - Change tabs Crazy Town - Buterfly tabs Stone Sour - Bother tabs Interpol - Obstacle (ver. 1)
e-chords

Other versions:

tabs In Flames - F(r)iend tabs Coal Chamber - Friend tabs Reset - Friend tabs One Dollar Short - Friend tabs Baby Strange - Friend tabs Cake - Friend Is A Four Letter Word
auto scroll beats size up size down change color hide chords drawings
tab show chords e-chords YouTube Clip e-chords hide all tabs e-chords go to top tab

share