Coal Chamber

Empty Handed

Coal Chamber

tabs

by  AMAN_CLAUDINO

save to print version add songbook text version e-mail correct tuner
chordsukulelecavacokeyboardtabbassdrumsharmonicaflute Guitar Pro
close

there isn't a video lesson for this song

chords

Empty Handed

	  		

Guitars 1 and 2 (w/ dist) 

 B|-------------------------------|-----------------------| 
F#|-------------------------------|------------------`5`--| 
 D|-------------------------------|---------------`5`-----| x8 
 A|-5--4--4-4----4-4--5--5-5----5-|-5--4-------`5`--------| 
 E|-5--4--4-4----4-4--5--5-5----5-|-5--4----`5`-----------| 
 A|-5--4--4-4----4-4--5--5-5----5-|-5--4-`5`--------------| 
          * *    *       * *    *        


Guitars 1 and 2 (w/ dist) 

 B|----------------------------|------------------------------| 
F#|----------------------------|------------------------------| 
 D|----------------------------|------------------------------| x4 
 A|----------------------------|------------------------------| 
 E|-1--1--1-1--1-1--1--2p1-----|-1--1--1-1--1-2p1-----2p1-----| 
 A|-1--1--1-1--1-1--1------2p1-|-1--1--1-1--1-----2p1-----2p1-| 
    *  *  * *  * *  *            *  *  * *  * 


Guitars 1 and 2 (w/ dist) 

 B|-------------------------------|-----------------------| 
F#|-------------------------------|------------------`5`--| 
 D|-------------------------------|---------------`5`-----| x8 
 A|-5--4--4-4----4-4--5--5-5----5-|-5--4-------`5`--------| 
 E|-5--4--4-4----4-4--5--5-5----5-|-5--4----`5`-----------| 
 A|-5--4--4-4----4-4--5--5-5----5-|-5--4-`5`--------------| 
          * *    *       * *    *        


Guitars 1 and 2 (w/ dist) 

 B|------------------------|-------------------------|------------------------|------------------------| 
F#|------------------------|-------------------------|------------------------|------------------------| 
 D|------------------------|-------------------------|------------------------|-5--5--5--5--5--7--7--7-|x4 
 A|-0--0--0--0--0--0--0--0-|-8--8--8--8--8--10-10-10-|-5--5--5--5--5--7--7--7-|-5--5--5--5--5--x--x--x-| 
 E|-0--0--0--0--0--0--0--0-|-8--8--8--8--8--8--8--8--|-5--5--5--5--5--5--5--5-|-3--3--3--3--3--5--5--5-| 
 A|-0--0--0--0--0--0--0--0-|-8--8--8--8--8--8--8--8--|-5--5--5--5--5--5--5--5-|------------------------| 


I. Guitars 1 and 2 (w/ dist) 

 B|--------|--------| 
F#|--------|--------| 
 D|--------|--------| 
 A|-0------|-0------| 
 E|-0------|-0------| 
 A|-0------|-0------| 

II. Guitars 1 and 2 (w/ dist and wah-wah) 

 B|---------------------------|---------------------------| 
F#|---------------------------|---------------------------| 
 D|---------------------------|---------------------------| 
 A|---------------------------|---------------------------| 
 E|`3``3``3`3``3`3``3``3`3``3`|`3``3``3`3``3`3``3``3`3``3`| 
 A|---------------------------|---------------------------| 

 B|---------------------------|---------------------------| 
F#|---------------------------|---------------------------| 
 D|---------------------------|---------------------------| 
 A|---------------------------|---------------------------| 
 E|---------------------------|---------------------------| 
 A|`3``3``3`3``3`3``3``3`3``3`|`3``3``3`3``3`3``3``3`3``3`| 

 B|---------------------------|---------------------------| 
F#|---------------------------|---------------------------| 
 D|---------------------------|---------------------------| 
 A|---------------------------|---------------------------| 
 E|`3``3``3`3``3`3``3``3`3``3`|`3``3``3`3``3`3``3``3`3``3`| 
 A|---------------------------|---------------------------| 

 B|---------------------------|---------------------------| 
F#|---------------------------|---------------------------| 
 D|---------------------------|---------------------------| 
 A|---------------------------|--------------------0-3----| 
 E|---------------------------|--------------------0-3----| 
 A|`3``3``3`3``3`3``3``3`3``3`|`3``3``3`3``3`3``3`-0-3----| 

III. Guitars 1 and 2 (w/ dist) 

 B|---------------------------|---------------------------| 
F#|---------------------------|---------------------------| 
 D|---------------------------|---------------------------| 
 A|-0--0--0-0--0-0--0--0-0--0-|-0--0--0-0--0-0--0--0-3-3--| 
 E|-0--0--0-0--0-0--0--0-0--0-|-0--0--0-0--0-0--0--0-3-3--| 
 A|-0--0--0-0--0-0--0--0-0--0-|-0--0--0-0--0-0--0--0-3-3--| 

 B|---------------------------|----------------------------| 
F#|---------------------------|----------------------------| 
 D|---------------------------|----------------------------| 
 A|-0--0--0-0--0-0--0--0-0--0-|-0--0--0-0--0-0--0--0-12-12-| 
 E|-0--0--0-0--0-0--0--0-0--0-|-0--0--0-0--0-0--0--0-12-12-| 
 A|-0--0--0-0--0-0--0--0-0--0-|-0--0--0-0--0-0--0--0-12-12-| 

 B|---------------------------|---------------------------| 
F#|---------------------------|---------------------------| 
 D|---------------------------|---------------------------| 
 A|-0--0--0-0--0-0--0--0-0--0-|-0--0--0-0--0-0--0--0-3-3--| 
 E|-0--0--0-0--0-0--0--0-0--0-|-0--0--0-0--0-0--0--0-3-3--| 
 A|-0--0--0-0--0-0--0--0-0--0-|-0--0--0-0--0-0--0--0-3-3--| 

 B|---------------------------|----------------------------| 
F#|---------------------------|----------------------------| 
 D|---------------------------|----------------------------| 
 A|-0--0--0-0--0-0--0--0------|-0--0--0-0--0-0--0--0-12-12-| 
 E|-0--0--0-0--0-0--0--0------|-0--0--0-0--0-0--0--0-12-12-| 
 A|-0--0--0-0--0-0--0--0------|-0--0--0-0--0-0--0--0-12-12-| 

 B|---------------------------|-----------------------------| 
F#|---------------------------|-----------------------------| 
 D|---------------------------|-----------------------------| x8 
 A|-0--6--6-/s12--12--12--12--|-0--6--6--0--6-/s12--12--12--| 
 E|-0--6--6-/s12--12--12--12--|-0--6--6--0--6-/s12--12--12--| 
 A|-0--6--6-/s12--12--12--12--|-0--6--6--0--6-/s12--12--12--| 


I. Guitar 1 (w/ dist) 

 B|------------------------|-------------------------| 
F#|------------------------|-------------------------| 
 D|------------------------|-------------------------| 
 A|-0--0--0--0--0--0--0--0-|-8--8--8--8--8--10-10-10-| 
 E|-0--0--0--0--0--0--0--0-|-8--8--8--8--8--8--8--8--| 
 A|-0--0--0--0--0--0--0--0-|-8--8--8--8--8--8--8--8--| 

II. Guitars 1 and 2 (w/ dist) 

 B|------------------------|------------------------| 
F#|------------------------|------------------------| 
 D|------------------------|-5--5--5--5--5--7--7--7-| 
 A|-5--5--5--5--5--7--7--7-|-5--5--5--5--5--x--x--x-| 
 E|-5--5--5--5--5--5--5--5-|-3--3--3--3--3--5--5--5-| 
 A|-5--5--5--5--5--5--5--5-|------------------------| 

 B|------------------------|-------------------------|------------------------|------------------------| 
F#|------------------------|-------------------------|------------------------|------------------------| 
 D|------------------------|-------------------------|------------------------|-5--5--5--5--5--7--7--7-| 
 A|-0--0--0--0--0--0--0--0-|-8--8--8--8--8--10-10-10-|-5--5--5--5--5--7--7--7-|-5--5--5--5--5--x--x--x-| 
 E|-0--0--0--0--0--0--0--0-|-8--8--8--8--8--8--8--8--|-5--5--5--5--5--5--5--5-|-3--3--3--3--3--5--5--5-| 
 A|-0--0--0--0--0--0--0--0-|-8--8--8--8--8--8--8--8--|-5--5--5--5--5--5--5--5-|------------------------| 

 B|---------------------|----------------------------|------------------------|------------------------| 
F#|---------------------|----------------------------|------------------------|------------------------| 
 D|---------------------|----------------------------|------------------------|-5--5--5--5--5--7--7--7-| 
 A|-0-0-0-0-0-0-0-0-0---|-0-0-0-0-0-0-0-0-8--8--8--8-|-5--5--5--5--5--7--7--7-|-5--5--5--5--5--x--x--x-| 
 E|-0-0-0-0-0-0-0-0-0---|-0-0-0-0-0-0-0-0-8--8--8--8-|-5--5--5--5--5--5--5--5-|-3--3--3--3--3--5--5--5-| 
 A|-0-0-0-0-0-0-0-0-0---|-0-0-0-0-0-0-0-0-8--8--8--8-|-5--5--5--5--5--5--5--5-|------------------------| 

 B|------------------------|-------------------------|------------------------|------------------------| 
F#|------------------------|-------------------------|------------------------|------------------------| 
 D|------------------------|-------------------------|------------------------|-5--5--5--5--5--7--7--7-| 
 A|-0--0--0--0--0--0--0--0-|-8--8--8--8--8--10-10-10-|-5--5--5--5--5--7--7--7-|-5--5--5--5--5--x--x--x-| 
 E|-0--0--0--0--0--0--0--0-|-8--8--8--8--8--8--8--8--|-5--5--5--5--5--5--5--5-|-3--3--3--3--3--5--5--5-| 
 A|-0--0--0--0--0--0--0--0-|-8--8--8--8--8--8--8--8--|-5--5--5--5--5--5--5--5-|------------------------| 
		  

See also:

tabs James Blunt - Cry tabs Iron Butterfly - IronButterfly-in A Gadda Da Vida tabs Stone Sour - Through glass (ver. 2) tabs Candlebox - Far behind tabs Mudvayne - World so cold tabs James Blunt - Wisemen
e-chords

Other versions:

tabs Foo Fighters - Empty Handed tabs Coal Chamber - Empty Handed
auto scroll beats size up size down change color hide chords drawings
tab show chords e-chords YouTube Clip e-chords hide all tabs e-chords go to top tab

share