Coal Chamber

El Cu Cuy (ver. 3)

Coal Chamber

tabs

save to print version add songbook text version e-mail correct tuner
chordsukulelecavacokeyboardtabbassdrumsharmonicaflute Guitar Pro
close

there isn't a video lesson for this song

chords

El Cu Cuy (ver. 3)

	  		 
-El Cu Cuy- 
By: Coal Chamber 
Album: Chamber Music 
Guitarist: Miguel "Meegz" Rascon 
Tabbed By: Brandon Moroch ([email protected]) 
Tuning: A,E,A,D,g,b 
Key: *= palm mute  h= hammer-on 
     /= slide      ^= bend  
     p= pull-off   x= muted string 
 
I tabbed out all the different parts to this song. You can figure  
out the order yourself. I am doin this tab from memory, but i think 
its right. I love the distortion Meegz gets with this song. intro riff 
sounds palm muted but its not, its just the bass in the drive. 
  
 
|-----------------------------------------------------------| 
|-----------------------------------------------------------| 
|-----------------------------------------------------------| 
|-----------------------------------------------------------| 
|-----------------------------------------------------------| 
|-4-4-4p2-4-4-2-4--2-4--2-4-5--4-4-4p2-4-4-2-4--2-4--5-4-2--| 
 
 
|------------------------------------------------------------| 
|------------------------------------------------------------|   
|------------------------------------------------------------| 
|-4-4-4-2-4-4-2-4--2-4--2h4-5---4-4-4-2-4-4-2-4--2-4--5p4-2--| 
|-4-4-4-2-4-4-2-4--2-4--2h4-5---4-4-4-2-4-4-2-4--2-4--5p4-2--| 
|-4-4-4-2-4-4-2-4--2-4--2h4-5---4-4-4-2-4-4-2-4--2-4--5p4-2--| 
 
|----------------------------------| 
|----------------------------------| 
|----------------------------------| 
|-0h8-\7--7--7---88-7--7--7--7-7/8-| 
|-0h8-\7--7--7---88-7--7--7--7-7/8-| 
|-0h8-\7--7--7-0h88-7--7--7--7-7/8-| 
 
|---------------------------------------| 
|---9--10-----11--9----9--8-----6--4----| 
|---8--9------10--8----8--7-----5--3----| 
|---x--x-------x--x----x--x-----x--x----| 
|---6--7-7-----8--6----6--5-----3--1----| 
|-0---------0-------------------------0-| 
 
|---------------------| 
|---------------------| 
|---------------------| 
|---------------------| 
|-0h11-1--1--1--1-1---| 
|-0h11-1--1--1--1-1---| 
  * ** *  *  *  * ** 
 

		  

See also:

tabs Wheatus - Teenage Dirtbag tabs James Blunt - Wisemen tabs Candlebox - Far behind tabs Slash Snakepit - Godfather Theme tabs Hoobastank - Disappear tabs Iron Butterfly - IronButterfly-in A Gadda Da Vida
e-chords

Other versions:

tabs Coal Chamber - El Cu Cuy tabs Coal Chamber - El Cu Cuy (ver. 2) tabs Coal Chamber - El Cu Cuy (ver. 3)
auto scroll beats size up size down change color hide chords drawings
tab show chords e-chords YouTube Clip e-chords hide all tabs e-chords go to top tab

share