Coal Chamber

Bradley

Coal Chamber

tabs

save to print version add songbook text version e-mail correct tuner
chordsukulelecavacokeyboardtabbassdrumsharmonicaflute Guitar Pro
close

there isn't a video lesson for this song

chords

Bradley

	  		Tuning: 
B#
E# 
A# 
D# 
G# 
B# 
Intro 
 
|-----------------------------------| 
|-----------------------------------| 
|--------------------------------11-| 
|--------------------------------10-| 
|--------------------------------9--| 
|-10-0-13p12-13p12-13p12-13p12-0----| 
 
Verse 
 
|----| 
|----| 
|----| 
|-2~-| 
|-2~-| 
|-0~-| 
 
|-----------------------------------| 
|-----------------------------------| 
|--------------------------------11-| 
|--------------------------------10-| 
|--------------------------------9--| 
|-10-0-13p12-13p12-13p12-13p12-0----|(RepeatX2) 
 
Chorus 
 
|-0------------0-----------| 
|-0------------0-----------| 
|-0------------0-----------| 
|-4/5-4-2-4-5--4/5-4-2-6-5-| 
|-4/5-4-2-4-5--4/5-4-2-6-5-| 
|-2/3-2-0-2-3--2/3-2-0-4-3-|(RepeatX4) 
 
Bridge 
 
|-0------------0-----------| 
|-0------------0-----------| 
|-0------------0-----------| 
|-4-5-4-2-4-5--4-5-4-2-6-5-| 
|-4-5-4-2-4-5--4-5-4-2-6-5-| 
|-2-3-2-0-2-3--2-3-2-0-4-3-| 
 
Outro 
 
|-0------------0-----------| 
|-0------------0-----------| 
|-0------------0-----------| 
|-4/5-4-2-4-5--4/5-4-2-6-5-| 
|-4/5-4-2-4-5--4/5-4-2-6-5-| 
|-2/3-2-0-2-3--2/3-2-0-4-3-|(RepeatX3) 
 
|-0------------0---------------| 
|-0------------0---------------| 
|-0------------0---------------| 
|-4/5-4-2-4-5--4/5-4-2-6-5--2~-| 
|-4/5-4-2-4-5--4/5-4-2-6-5--2~-| 
|-2/3-2-0-2-3--2/3-2-0-4-3--0~-| 
 
That?s The Song ? For Any Suggestions Mail Me At [email protected] 
 

		  

See also:

tabs Avantasia - Sign Of The Cross tabs Bloodhound Gang - Fire Water Burn (The Roof is on Fire) tabs Deftones - Change tabs Crazy Town - Buterfly tabs Stone Sour - Bother tabs Interpol - Obstacle (ver. 1)
e-chords

Other versions:

tabs Coal Chamber - Bradley tabs Coal Chamber - Bradley (ver. 2)
auto scroll beats size up size down change color hide chords drawings
tab show chords e-chords YouTube Clip e-chords hide all tabs e-chords go to top tab

share