Coal Chamber

Big Truck

Coal Chamber

tabs

save to print version add songbook text version e-mail correct tuner
chordsukulelecavacokeyboardtabbassdrumsharmonicaflute Guitar Pro
close

there isn't a video lesson for this song

chords

Big Truck

	  		e-mail:[email protected] 
 
Intro Riff, palm muting 
A------------------------------- 
E-0-0-0-6-0---0-0-0-0-0--6-0-6-- 
 
Riff1 "Big truck, big truck" 
D-------------------66------------ 
A-000--60--00--000--66------------ 
E-000--60--00--000--66------------ 
Variations to the intro riff throughout the song 
 
Various Riff 
E-2---- 
B-2---- 
G-2---- 
 
Riff2 "Movin, motion" 
E-------2--------2----------- 
B-------2--------2----------- 
G-------2--------2----------- 
PM_D-0-------00-------------- 
PM_A-0-------00-------------- 
PM_E-0-------00-------------- 
 
PM=Palm mute those strings. 
 
Riff3 "Bigtruck, Bigtruck" 
E------0---------0--------00------ 
B------0---------0--------00------ 
G--------------------------------- 
D-0-0-------0-0------0-0---------- 
A-0-0-------0-0------0-0---------- 
E-0-0-------0-0------0-0---------- 
 

		  

See also:

tabs Avantasia - Sign Of The Cross tabs Bloodhound Gang - Fire Water Burn (The Roof is on Fire) tabs Deftones - Change tabs Crazy Town - Buterfly tabs Stone Sour - Bother tabs Interpol - Obstacle (ver. 1)
e-chords

Other versions:

tabs Coal Chamber - Big Truck tabs Coal Chamber - Big Truck (ver. 2) tabs Coal Chamber - Big Truck (ver. 3)
auto scroll beats size up size down change color hide chords drawings
tab show chords e-chords YouTube Clip e-chords hide all tabs e-chords go to top tab

share