Coal Chamber

Bad Blood Between Us

Coal Chamber

tabs

by  HUGO_RODRIGUES

save to print version add songbook text version e-mail correct tuner
chordsukulelecavacokeyboardtabbassdrumsharmonicaflute Guitar Pro
close

there isn't a video lesson for this song

chords

Bad Blood Between Us

	  		

I. Guitars 1 and 2 (w/ dist) 

B|------------------------|----------|------------------------|--------------------| 
G|------------------------|----------|------------------------|--------------------| 
D|------------------------|----------|------------------------|--------------------| 
A|-7-7-8---2-2-3---3-3-5--|-3-3-5----|-7-7-8---2-2-3---3-3-5--|-3-3-5---/s5---/s5--| 
E|-7-7-8---2-2-3---3-3-5--|-3-3-5----|-7-7-8---2-2-3---3-3-5--|-3-3-5---/s5---/s5--| 
A|-7-7-8---2-2-3---3-3-5--|-3-3-5----|-7-7-8---2-2-3---3-3-5--|-3-3-5---/s5---/s5--| 

B|---------------------|------------------------|------------------------|--------------------| 
G|---------------------|------------------------|------------------------|--------------------| 
D|---------------------|------------------------|------------------------|--------------------| 
A|-7--8---2--3---3--5--|-3--5-------------------|-7-7-8---2-2-3---3-3-5--|-3-3-5---/s5---/s5--| 
E|-7--8---2--3---3--5--|-3--5-------------------|-7-7-8---2-2-3---3-3-5--|-3-3-5---/s5---/s5--| 
A|-7--8---2--3---3--5--|-3--5---2-2-5-5-3-3-2-2-|-7-7-8---2-2-3---3-3-5--|-3-3-5---/s5---/s5--| 
                                * * * * * * * * 
B|------------------------|----------| 
G|------------------------|----------| 
D|------------------------|----------| x4 
A|-7-7-8---2-2-3---3-3-5--|-3-3-5----| 
E|-7-7-8---2-2-3---3-3-5--|-3-3-5----| 
A|-7-7-8---2-2-3---3-3-5--|-3-3-5----| 

II. Guitar 1 (w/ dist) 

B|------------------------|-------------------------|------------------------|-------------------------| 
G|----------5-------------|----------5--------------|----------5-------------|----------5--------------| 
D|----------4-------------|----------4--------------|----------4-------------|----------4--------------| x2 
A|-2--------------------2-|-------------------3--5--|-2--------------------2-|-------------------/s3---| 
E|-2--2--2-----2--2--2--2-|-2--2--2-----2--2--3--5--|-2--2--2-----2--2--2--2-|-2--2--2-----2--2--/s3---| 
A|-2--2--2-----2--2--2--2-|-2--2--2-----2--2--3--5--|-2--2--2-----2--2--2--2-|-2--2--2-----2--2--/s3---| 
      *  *     *  *  *      *  *  *     *  *             *  *     *  *  *      *  *  *     *  * 

|--------------------------------------------------------------------------------------------------------| 
|                                          VERSE (00:51-01:20)                                           | 
|--------------------------------------------------------------------------------------------------------| 

Guitars 1 and 2 (w/ dist) 

B|------------------------|-------------------------|------------------------|-------------------------| 
G|----------5-------------|----------5--------------|----------5-------------|----------5--------------| 
D|----------4-------------|----------4--------------|----------4-------------|----------4--------------| x4 
A|-2--------------------2-|-------------------3--5--|-2--------------------2-|-------------------/s3---| 
E|-2--2--2-----2--2--2--2-|-2--2--2-----2--2--3--5--|-2--2--2-----2--2--2--2-|-2--2--2-----2--2--/s3---| 
A|-2--2--2-----2--2--2--2-|-2--2--2-----2--2--3--5--|-2--2--2-----2--2--2--2-|-2--2--2-----2--2--/s3---| 
      *  *     *  *  *      *  *  *     *  *             *  *     *  *  *      *  *  *     *  * 
                                      
|--------------------------------------------------------------------------------------------------------| 
|                                        Pre-Chorus (01:20-01:23)                                        | 
|--------------------------------------------------------------------------------------------------------| 

Guitars 1 and 2 (w/ dist) 

B|---------------------------------|------------------------------| 
G|---------------------------------|------------------------------| 
D|---------------------------------|------------------------------| 
A|---------------------------------|------------------------------| 
E|-----------------7-7-7-7-4-4-4-4-|-----------------7-7-7-7------| 
A|-3-3-3-3-2-2-2-2-----------------|-3-3-3-3-2-2-2-2--------------| 

|--------------------------------------------------------------------------------------------------------| 
|                                          Chorus (01:23-01:41)                                          | 
|--------------------------------------------------------------------------------------------------------| 

I. Guitars 1 and 2 (w/ dist) 

B|---------------------------| 
G|---------------------------| 
D|---------------------------| x8 
A|-0-2-2-2-0--2--------------| 
E|-0-2-2-2-0--2--2--2--2--2--| 
A|-0-2-2-2-0--2--2--2--2--2--| 
                 *  *  *  * 

II. Guitar 1 (w/ dist) 

B|------------------------|------------------------| 
G|----------5-------------|----------5-------------| 
D|----------4-------------|----------4-------------| 
A|-2--------------------2-|-------------------2----| 
E|-2--2--2-----2--2--2--2-|-2--2--2-----2--2--2----| 
A|-2--2--2-----2--2--2--2-|-2--2--2-----2--2--2----| 
      *  *     *  *  *      *  *  *     *  *           

|--------------------------------------------------------------------------------------------------------| 
|                                         verse 2 (01:41-02:10)                                          | 
|--------------------------------------------------------------------------------------------------------| 

Guitars 1 and 2 (w/ dist) 

B|------------------------|-------------------------|------------------------|-------------------------| 
G|----------5-------------|----------5--------------|----------5-------------|----------5--------------| 
D|----------4-------------|----------4--------------|----------4-------------|----------4--------------| 
A|-2--------------------2-|-------------------3--5--|-2--------------------2-|-------------------/s3---| 
E|-2--2--2-----2--2--2--2-|-2--2--2-----2--2--3--5--|-2--2--2-----2--2--2--2-|-2--2--2-----2--2--/s3---| 
A|-2--2--2-----2--2--2--2-|-2--2--2-----2--2--3--5--|-2--2--2-----2--2--2--2-|-2--2--2-----2--2--/s3---| 
      *  *     *  *  *      *  *  *     *  *             *  *     *  *  *      *  *  *     *  * 
B|------------------------|-------------------------|------------------------|-------------------------| 
G|----------5-------------|----------5--------------|----------5-------------|-------------------------| 
D|----------4-------------|----------4--------------|----------4-------------|-------------------------| 
A|-2--------------------2-|-------------------3--5--|-2-----------------2----|--------------------2-3--| 
E|-2--2--2-----2--2--2--2-|-2--2--2-----2--2--3--5--|-2--2--2-----2--2--2----|--------------------2-3--| 
A|-2--2--2-----2--2--2--2-|-2--2--2-----2--2--3--5--|-2--2--2-----2--2--2----|-3-3-2--2--3-3-2--2-2-3--| 
      *  *     *  *  *      *  *  *     *  *             *  *     *  *         * * *  *  * * *  * 
B|------------------------|-------------------------|------------------------|-------------------------| 
G|----------5-------------|----------5--------------|----------5-------------|----------5--------------| 
D|----------4-------------|----------4--------------|----------4-------------|----------4--------------| x2 
A|-2--------------------2-|-------------------3--5--|-2--------------------2-|-------------------/s3---| 
E|-2--2--2-----2--2--2--2-|-2--2--2-----2--2--3--5--|-2--2--2-----2--2--2--2-|-2--2--2-----2--2--/s3---| 
A|-2--2--2-----2--2--2--2-|-2--2--2-----2--2--3--5--|-2--2--2-----2--2--2--2-|-2--2--2-----2--2--/s3---| 
      *  *     *  *  *      *  *  *     *  *             *  *     *  *  *      *  *  *     *  * 

|--------------------------------------------------------------------------------------------------------| 
|                                       Pre-Chorus 2 (02:10-02:20)                                       | 
|--------------------------------------------------------------------------------------------------------| 

Guitars 1 and 2 (w/ dist) 

B|---------------------------------|---------------------------------| 
G|---------------------------------|---------------------------------| 
D|---------------------------------|---------------------------------| x4 
A|---------------------------------|---------------------------------| 
E|-----------------7-7-7-7-4-4-4-4-|-----------------7-7-7-7-4-4-4-4-| 
A|-3-3-3-3-2-2-2-2-----------------|-3-3-3-3-2-2-2-2-----------------| 

|--------------------------------------------------------------------------------------------------------| 
|                                         Chorus 2 (02:20-02:50)                                         | 
|--------------------------------------------------------------------------------------------------------| 

Guitars 1 and 2 (w/ dist) 

B|---------------------------| 
G|---------------------------| 
D|---------------------------| x16 
A|-0-2-2-2-0--2--------------| 
E|-0-2-2-2-0--2--2--2--2--2--| 
A|-0-2-2-2-0--2--2--2--2--2--| 
                 *  *  *  * 

|--------------------------------------------------------------------------------------------------------| 
|                                          BRIDGE (02:50-03:21)                                          | 
|--------------------------------------------------------------------------------------------------------| 

Guitars 1 and 2 (w/ dist) 

B|-------------------------|---------------------|------------------------|-------------------------| 
G|-------------------------|---------------------|------------------------|-------------------------| 
D|-------------------------|---------------------|------------------------|-------------------------| x4 
A|-0-2-2-2s8---0-0-2---0-0-|-2---0-0-2---0-0-2---|-0-0-2---0-0-2---0-0-2--|-0-0-2-------------------| 
E|-0-2-2-2s8---0-0-2---0-0-|-2---0-0-2---0-0-2---|-0-0-2---0-0-2---0-0-2--|-0-0-2-------------------| 
A|-0-2-2-2s8---0-0-2---0-0-|-2---0-0-2---0-0-2---|-0-0-2---0-0-2---0-0-2--|-0-0-2---2-2-2-2-3-3-3-3-| 

|--------------------------------------------------------------------------------------------------------| 
|                                         Chorus 3 (03:21-03:50)                                         | 
|--------------------------------------------------------------------------------------------------------| 
                                             same as Chorus 2 
|--------------------------------------------------------------------------------------------------------| 
|                                          OUTRO (03:50-04:00)                                           | 
|--------------------------------------------------------------------------------------------------------| 

Guitars 1 and 2 (w/ dist) 

B|---------------------------|      |-----------------------------| 
G|---------------------------|      |-----------------------------| 
D|---------------------------| x3   |-----------------------------| 
A|-0-2-2-2-2-----------------|      |-0-2-2-2-2-------------------| 
E|-0-2-2-2-2-----2--2--2--2--|      |-0-2-2-2-2-----2--2--2--2----| 
A|-0-2-2-2-2--0--2--2--2--2--|      |-0-2-2-2-2--0--2--2--2--2-2--| 
                 *  *  *  *                         *  *  *  * 
		  

See also:

tabs Avantasia - Sign Of The Cross tabs Bloodhound Gang - Fire Water Burn (The Roof is on Fire) tabs Deftones - Change tabs Crazy Town - Buterfly tabs Stone Sour - Bother tabs Interpol - Obstacle (ver. 1)
e-chords

Other versions:

tabs Coal Chamber - Bad Blood Between Us
auto scroll beats size up size down change color hide chords drawings
tab show chords e-chords YouTube Clip e-chords hide all tabs e-chords go to top tab

share