Clueso

Wie Versprochen

Clueso

tabs

by  ROBEPOIEL

save to print version add songbook text version e-mail correct tuner
chordsukulelecavacokeyboardtabbassdrumsharmonicaflute Guitar Pro
close

there isn't a video lesson for this song

chords

Wie Versprochen

	  		Intro 
e|---------8---------8--------|---------10-----------------| 
B|-------------------------11-|----------------11-----8----| 
G|------0---------0-----------|------0-------------0-----0-| 
D|----------------------------|----------------------------| 
A|--10--------10--------10----|--10--------10--------------| 
E|----------------------------|----------------------------| 

e|---------------------------|---------------------------| 
B|--------6------8-----6-----|--------5--8--------6--\5--| 
G|-----0------------0-----0--|-----0-----------0---------| 
D|---------------------------|---------------------------| 
A|--8---------8--------------|---------------------------| 
E|---------------------------|--8-----------8------------| 

4x 


Verse 
    Gm 
e|-------------------------|-------------------------| 
B|-------------------------|-------------------------| 
G|-----0-----0-----0-----0-|-----0-----0-----0-----0-| 
D|--5-----5-----5-----5----|--5-----5-----5-----5----| 
A|--5----------------------|-------------------------| 
E|--3----------------------|-------------------------| 

    F                         C 
e|-------------------------|-------------------------| 
B|-------------------------|-------------------------| 
G|-----0-----0-----0-----0-|-----0-----0-----0-----0-| 
D|--3-----3-----3-----3----|--5-----5-----5-----5----| 
A|--3----------------------|--3----------------------| 
E|--1----------------------|-------------------------| 

4x 


Chorus 
Like the Verse but you can try to emulate the other instrument by doing the following 
    Gm 
e|-------------------------|-------------------------| 
B|-------------------------|-------------------------| 
G|-----0-----0-----0-----0-|-----0-----0-----0-----0-| 
D|--5-----5-----5-----5----|--5-----5-----5-----5----| 
A|--5----------------------|-------------------------| 
E|--3----------------------|-------------------------| 

    F                         C 
e|-------------------------|-------------------------| 
B|-------------------------|-------------------------| 
G|-----0-----0-----0-----0-|-----0-----0-----0-----0-| 
D|--3-----3-----3-----3----|--5-----5-----5-----5----| 
A|--0----------------------|--3----------------------| 
E|--1----------------------|-------------------------| 

    Gm 
e|-------------------------|-------------------------| 
B|-------------------------|-------------------------| 
G|-----0-----0-----0-----0-|-----0-----0-----0-----0-| 
D|--5-----5-----5-----5----|--5-----5-----5-----5----| 
A|--5-----------5----------|--1-----------5----------| 
E|--3-----------5----------|-------------------------| 

    F                         C 
e|-------------------------|-------------------------| 
B|-------------------------|-------------------------| 
G|-----0-----0-----0-----0-|-----0-----0-------------| 
D|--3-----3-----3-----3----|--5-----5-----5--3-------| 
A|--3----------------------|--3--------------1---0---| 
E|--1----------------------|-------------------------| 

    Gm 
e|-------------------------|-------------------------| 
B|-------------------------|-------------------------| 
G|-----0-----0-----0-----0-|-----0-----0-----0-----0-| 
D|--5-----5-----5-----5----|--5-----5-----5-----5----| 
A|--5----------------------|-------------------------| 
E|--3----------------------|-------------------------| 

    F                         C 
e|-------------------------|-------------------------| 
B|-------------------------|-------------------------| 
G|-----0-----0-----0-----0-|-----0-----0-----0-----0-| 
D|--3-----3-----3-----3----|--5-----5-----5-----5----| 
A|--0----------------------|--3----------------------| 
E|--1----------------------|-------------------------| 

    Gm 
e|-------------------------|-------------------------| 
B|-------------------------|-------------------------| 
G|-----0-----0-----0-----0-|-----0-----0-----0-----0-| 
D|--5-----5-----5-----5----|--5-----5-----5-----5----| 
A|--5-----------5----------|--1-----------5----------| 
E|--3-----------5----------|-------------------------| 

    F                         C 
e|-------------------------|-------------------------| 
B|-------------------------|-------------------------| 
G|-----0-----0-----0-----0-|-----0-----0-----0-----0-| 
D|--3-----3-----3-----3----|--5-----5-----5-----5----| 
A|--3----------------------|--3----------------------| 
E|--1----------------------|-------------------------| 


Interlude 
e|---------8---------8--------|---------10-----------------| 
B|-------------------------11-|----------------11-----8----| 
G|------0---------0-----------|------0-------------0-----0-| 
D|----------------------------|----------------------------| 
A|--10--------10--------10----|--10--------10--------------| 
E|----------------------------|----------------------------| 

e|---------------------------|---------------------------| 
B|--------6------8-----6-----|--------5--8--------6--\5--| 
G|-----0------------0-----0--|-----0-----------0---------| 
D|---------------------------|---------------------------| 
A|--8---------8--------------|---------------------------| 
E|---------------------------|--8-----------8------------| 

2x 

Verse 

Chorus 

Bridge 
e|-------------------------|-------------------------| 
B|-------------------------|-------------------------| 
G|-------------------------|-------------------------| 
D|-------------------------|-------------------------| 
A|-------------------------|-------------------------| 
E|-------------------------|-------------------------| 

e|---------8---------8--------|---------10-----------------| 
B|-------------------------11-|----------------11-----8----| 
G|------0---------0-----------|------0-------------0-----0-| 
D|----------------------------|----------------------------| 
A|--10--------10--------10----|--10--------10--------------| 
E|----------------------------|----------------------------| 

e|---------------------------|---------------------------| 
B|--------6------8-----6-----|--------5--8--------6--\5--| 
G|-----0------------0-----0--|-----0-----------0---------| 
D|---------------------------|---------------------------| 
A|--8---------8--------------|---------------------------| 
E|---------------------------|--8-----------8------------| 

4x 


Outro 
    Gm PM 
e|-------------------------|-------------------------| 
B|-------------------------|-------------------------| 
G|-------------------------|-------------------------| 
D|--5-----5-----5-----5----|--5-----5-----5-----5----| 
A|--5-----5-----5-----5----|--5-----5-----5-----5----| 
E|--3-----3-----3-----3----|--3-----3-----3-----3----| 

    F PM                      C PM 
e|-------------------------|-------------------------| 
B|-------------------------|-------------------------| 
G|-------------------------|--0-----0-----0-----0----| 
D|--3-----3-----3-----3----|--5-----5-----5-----5----| 
A|--3-----3-----3-----3----|--3-----3-----3-----3----| 
E|--1-----1-----1-----1----|-------------------------| 

2x 

*********************************** 

| \   Slide down 
| PM  Palm muting 

*********************************** 
		  

Full key step upFull key step up
Half key step upHalf key step up
Half key step downHalf key step down
Full key step downFull key step down
hide glossary

See also:

tabs Alligatoah - Trauerfeier Lied tabs Kraftklub - Ritalinmedikinet tabs Kraftklub - Mein Leben tabs J. Cole - No Role Modelz tabs Kraftklub - Gestern Nacht tabs Alligatoah - Trauerfeier
e-chords

Other versions:

tabs Clueso - Wie Versprochen
auto scroll beats size up size down change color hide chords drawings
tab show chords e-chords YouTube Clip e-chords hide all tabs e-chords go to top tab

share