Cloudkicker

Threaded

Cloudkicker

tabs

by  ANDRSOUZA

save to print version add songbook text version e-mail correct tuner
chordsukulelecavacokeyboardtabbassdrumsharmonicaflute Guitar Pro
close

there isn't a video lesson for this song

chords

Threaded

	  		
Intro (0:00 - 0:10) 
        NH            NH                                  NH            NH                              
        Q     Q       H            W                      Q     Q       H            W                  
E||----------------------------|--------------------|----------------------------|--------------------| 
B||----------------------------|--------------------|----------------------------|--------------------| 
G||--<>12----------------------|--------------------|--<>12----------------------|--------------------| 
D||----------10----------------|--------------------|----------10----------------|--------------------| 
A||----------------<>12--------|---L----------------|----------------<>12--------|---L----------------| 
E||----------------------------|--------------------|----------------------------|--------------------| 


Loop I (0:11 - onwards) 

     Q     Q     H            W                  
E||-----------------------|--------------------| 
B||-----------------------|--------------------| 
G||--0--------------------|--------------------| 
D||-------10--------------|--------------------| 
A||-------------12--------|---L----------------| 
E||-----------------------|--------------------| 


Loop II (0:21 - onwards) 

     H         E   E   E   E      E   E   E   E   E   E   E   E      E   E   E   E  E  E  E  E   
E||---------------------------|----------------------------------|------------------------------| 
B||---------------------------|----------------------------------|------------------------------| 
G||---------------------------|----------------------------------|------------------------------| 
D||---------------------------|----------------------------------|------------------------------| 
A||-----------12--12--12--12--|--12--12--12--12--12--12--12--12--|--12--12--12--12--8--8--8--8--| 
E||---------------------------|----------------------------------|------------------------------| 


  E  E  E  E  E  E  E  E     E  E  E  E  E  E  E  E     E  E  E  E  E  E  E  E     E  E  E  E  E  E  E  E   
--------------------------|--------------------------|--------------------------|--------------------------| 
--------------------------|--------------------------|--------------------------|--------------------------| 
--------------------------|--------------------------|--------------------------|--------------------------| 
--------------------------|--------------------------|--------------------------|--------------------------| 
--8--8--8--7--7--7--7--7--|--7--7--7--7--0--0--0--0--|--0--0--0--0--0--0--0--0--|--0--0--0--0--8--8--8--8--| 
--------------------------|--------------------------|--------------------------|--------------------------| 

                                          Loop starts again 
  E  E  E  E  E  E  E  E     E  E  E  E   E   E   E   E    
--------------------------|------------------------------| 
--------------------------|------------------------------| 
--------------------------|------------------------------| 
--------------------------|------------------------------| 
--8--8--8--7--7--7--7--7--|--7--7--7--7--12--12--12--12--| 
--------------------------|------------------------------| 


Loop III (0:40 - onwards) 

     H         E   E   E   E      E   E   E   E   E   E   E  E     E  E  E  E    E   E   E   E    
E||---------------------------|---------------------------------|-------------------------------| 
B||---------------------------|---------------------------------|-------------------------------| 
G||---------------------------|---------------------------------|-------------------------------| 
D||-----------14--14--14--12--|--12--12--12--10--10--10--10--9--|--9--9--9--9S--14--14--14--12--| 
A||---------------------------|---------------------------------|-------------------------------| 
E||---------------------------|---------------------------------|-------------------------------| 

                                                      Loop starts again 
   E   E   E   E   E   E   E   E      E   E   E   E   E   E   E   E    
----------------------------------|----------------------------------| 
----------------------------------|----------------------------------| 
----------------------------------|----------------------------------| 
--12--12--12--14--14--14--14--14--|--14--14--14--14--14--14--14--12--| 
----------------------------------|----------------------------------| 
----------------------------------|----------------------------------| 


Loop IV (1:00 - onwards) 

     H         E   E   E   E      E   E   E   E   E   E   E  E     E  E  E  E  E  E  E  E   
E||-----------15--15--15--12--|--12--12--12--10--10--10--10--8--|--8--8--8--7--7--7--7--5--| 
B||---------------------------|---------------------------------|--------------------------| 
G||---------------------------|---------------------------------|--------------------------| 
D||---------------------------|---------------------------------|--------------------------| 
A||---------------------------|---------------------------------|--------------------------| 
E||---------------------------|---------------------------------|--------------------------| 


  E  E  E  E  E  E  E  E     E  E  E  E  E  E  E  E     E  E  E  E  E  E  E  E     E  E  E  E  E  E  E  E   
--5--5--5--3--3--3--3--1--|--1--1--1--1--1--0--0-----|--------------------------|--------------------------| 
--------------------------|-----------------------3--|--3--3--3--1--1--1--1--0--|--0--0--0--0--------------| 
--------------------------|--------------------------|--------------------------|--------------2--2--2--0--| 
--------------------------|--------------------------|--------------------------|--------------------------| 
--------------------------|--------------------------|--------------------------|--------------------------| 
--------------------------|--------------------------|--------------------------|--------------------------| 

                                          Loop starts again 
  E  E  E  E  E  E  E  E     E  E  E  E   E   E   E   E    
--------------------------|--------------15--15--15--12--| 
--------------------------|------------------------------| 
--0--0--0-----------------|------------------------------| 
-----------2--2--2--2--2--|--2--2--2--2------------------| 
--------------------------|------------------------------| 
--------------------------|------------------------------| 
 
		  

Full key step upFull key step up
Half key step upHalf key step up
Half key step downHalf key step down
Full key step downFull key step down
hide glossary

See also:

tabs Deep Purple - Lazy tabs Deep Purple - Highway Star tabs Deep Purple - Demon's Eye tabs Deep Purple - Smoke on the water (easy ver.) tabs Deep Purple - Perfect Strangers tabs Deep Purple - Deep Purple - Smoke On The Water
e-chords

Other versions:

tabs Cloudkicker - Threaded
auto scroll beats size up size down change color hide chords drawings
tab show chords e-chords YouTube Clip e-chords hide all tabs e-chords go to top tab

share