Cloudkicker

Loop 12

Cloudkicker

tabs

by  HEBEALMEIDA

save to print version add songbook text version e-mail correct tuner
chordsukulelecavacokeyboardtabbassdrumsharmonicaflute Guitar Pro
close

there isn't a video lesson for this song

chords

Loop 12

Key:  E More
Loop 12 Key BB
Loop 12 Key CC
Loop 12 Key C#C#
Loop 12 Key DD(one step down)
Loop 12 Key D#D#(half step down)
Loop 12 Key EE(original key)
Loop 12 Key FF(half step up)
Loop 12 Key F#F#(one step up)
Loop 12 Key GG
Loop 12 Key G#G#
Loop 12 Key AA
Loop 12 Key A#A#
	  		


 Since this is off the Loop album, this part loops throughout the whole song. Enjoy. 

E  :----------------|----------------|----------------------| 
B  :----------------|----------------|----------------------| 
G  :--------6-------|----6-----------|6---------------6-----| 
D  :----4-----------|4-----------4---|-----------4----------| 
A  :----------------|----------------|----------------------| 
E  :----------------|--------2-------|------6---------------| 
B  :4-----------4---|----------------|----------------------| 

E  :----4-6---4-2---|------------4-6-|--(4)------9-11---(9)-| 
B  :----6-7---6-2---|------------6-6-|----------11-11-------| 
G  :----------------|----------------|----------------------| 
D  :----------------|----------------|----------------------| 
A  :----------------|----------------|----------------------| 
E  :----------------|----------------|----------------------| 

G  :----------------|----------------|----------------------| 
D  :----------------|----------------|----------------------| 
A  :----------------|----------------|----------------------| 
E  :----------------|--------2---2---|2-----6----6----6-----| 
B  :4---4---4---4---|4---4-----------|----------------------| 

============================================================================ 

E  :--------------------|----------------|----------------| 
B  :--------------------|----------------|----------------| 
G  :--------6-----------|----6-----------|6-----------6---| 
D  :----4---------------|4-----------4---|--------4-------| 
A  :--------------------|----------------|----------------| 
E  :--------------------|----------------|----------------| 
B  :0--------------0----|--------0-------|----0-----------| 

E  :----1-2---(1)-(2)---|----------------|----------------| 
B  :----2-2---(2)-(2)---|----------------|----------------| 
G  :--------------------|----------------|----------------| 
D  :--------------------|----------------|----------------| 
A  :--------------------|----------------|----------------| 
E  :--------------------|----------------|----------------| 

G  :--------------------|----------------|----------------| 
D  :--------------------|----------------|----------------| 
A  :--------------------|----------------|----------------| 
E  :7---7---7------7----|7---7---7---7---|7---7---7---7---| 
B  :--------------------|----------------|----------------| 
		  

auto scroll beats size up size down change color hide chords drawings
tab show chords e-chords YouTube Clip e-chords hide all tabs e-chords go to top tab

share