City And Colour

Take Care

City And Colour

tabs Advanced advanced

by  TARIKIKE

save to print version add songbook text version e-mail correct tuner
chordsukulelecavacokeyboardtabbassdrumsharmonicaflute Guitar Pro
close

there isn't a video lesson for this song

chords

Take Care

	  		
   Intro 
b-|-------------------------------------------| 
F#|-------------------------------------------| 
E-|-2-4p0----0-0---------------------------2--| 
B-|-0-----0h4-44-5p4p0----0-0h2-2h4p2p0----0--|   x2 
E-|-2-----------------2/4-4------------4\2-2--| 
B-|-0--------------------------------------0--| 


   Verse 

   Take better... 
b-|-------------------------------------------| 
F#|-------------------------------------------| 
E-|-2-4p0----0-0---------------------------2--| 
B-|-0-----0h4-44-5p4p0----0-0h2-2h4p2p0----0--|   x2 
E-|-2-----------------2/4-4------------4\2-2--| 
B-|-0--------------------------------------0--| 

   Cause only... 
b-|--44------------4----------------| 
F#|--55-------------5---0-----------| 
E-|--44--------2-----4---------2----| 
B-|---x--------0---------------0----| 
E-|-4-4-7/9-\2-2--4------77/9--2----| 
B-|------------0---------------0----| 

   So take... 
b-|-------------------------------------------| 
F#|-------------------------------------------| 
E-|-2-4p0----0-0---------------------------2--| 
B-|-0-----0h4-44-5p4p0----0-0h2-2h4p2p0----0--| 
E-|-2-----------------2/4-4------------4\2-2--| 
B-|-0--------------------------------------0--| 


   Chorus 

   Cause you... 
b-|-------------------------------------| 
F#|-------------------------------------| 
E-|----------0---0-------------0---0----| 
B-|-0-0-4-0h4-4-4-4~--0-0-4-0h4-4-4-4~--|  x2 
E-|-4-6-4-------4-----4-6-4-------4-----| 
B-|-5-7-x-------x-----5-7-x-------x-----| 

   Mistaken for... 
b-|-----------------------------| 
F#|-----------------------------| 
E-|-----------0---0----2--------| 
B-|-0-00---0h4-4---4~--0--------| 
E-|-4-67-4-------4-----2--------| 
B-|-5-79-5-------5-----0--------| 


   Verse 

   I will... 
b-|-------------------------------------------| 
F#|-------------------------------------------| 
E-|-2-4p0----0-0---------------------------2--| 
B-|-0-----0h4-44-5p4p0----0-0h2-2h4p2p0----0--|   x2 
E-|-2-----------------2/4-4------------4\2-2--| 
B-|-0--------------------------------------0--| 

   And so sudden... 
b-|--44------------44------------| 
F#|--55------------55------------| 
E-|--44--------2---44-------2----| 
B-|---x--------0----x-------0----| 
E-|-4-4-7/9-\2-2--4-4--7/9--2----| 
B-|------------0------------0----| 

   I will... 
b-|-------------------------------------------| 
F#|-------------------------------------------| 
E-|-2-4p0----0-0---------------------------2--| 
B-|-0-----0h4-44-5p4p0----0-0h2-2h4p2p0----0--| 
E-|-2-----------------2/4-4------------4\2-2--| 
B-|-0--------------------------------------0--| 


Play Chorus 


    Bridge 

b-|-0---------------------------------| 
F#|--4--------------------------------| 
E-|---0----2h4p2p0---------0-2p0------| 
B-|--------------------2/4-4----4-----| 
E-|-2---2/4-------4p0-0---------------| 
B-|-----------------------------------| 

b-|----0---------------------------------| 
F#|-----4--------------------------------| 
E-|-----------2h4p2p0---------0-2p0------| 
B-|-0-0-------------------2/4-4----4-----| 
E-|-2-2----2/4-------4p0-----------------| 
B-|--------------------------------------| 

b-|----0-------------------------------------| 
F#|-----4------------------------------------| 
E-|-----------2h4p2p0---------0----0-----0---| 
B-|-0-0-------------------2/4---4/7--7\2---2-| 
E-|-2-2----2/4-------4p0---------------------| 
B-|------------------------------------------| 

b-|----0----------------------------------| 
F#|-----4---------------------------------| 
E-|-----------2h4p2p0---------0-----------| 
B-|-0-0-------------------2/4--4-4-4\2----| 
E-|-2-2----2/4-------4p0------------------| 
B-|---------------------------------------| 


   So take... 
b-|-------------------------------------------| 
F#|-------------------------------------------| 
E-|-2-4p0----0-0---------------------------2--| 
B-|-0-----0h4-44-5p4p0----0-0h2-2h4p2p0----0--| 
E-|-2-----------------2/4-4------------4\2-2--| 
B-|-0--------------------------------------0--| 

b-|------------------------------------------| 
F#|------------------------------------------| 
E-|-2-4p0----0-0-------------------------2~~-| 
B-|-0-----0h4-44-5p4p0----0-0h2-2h4p2p0--0~~-| 
E-|-2-----------------2/4-4--------------2~~-| 
B-|-0------------------------------------0~~-| 

 
		  

See also:

tabs Neil Young - Southern Man tabs City And Colour - Commentators tabs Terri Clark - Flowers After The Fact tabs City And Colour - Caseys Song tabs Shania Twain - I'm Gonna Getcha Good! tabs Shania Twain - Honey, I'm Home
e-chords

Other versions:

tabs City And Colour - Take Care tabs A Change Of Pace - Take Care
auto scroll beats size up size down change color hide chords drawings
tab show chords e-chords YouTube Clip e-chords hide all tabs e-chords go to top tab

share