City And Colour

Caseys Song

City And Colour

tabs

by  JOAOEWERTON

save to print version add songbook text version e-mail correct tuner
chordsukulelecavacokeyboardtabbassdrumsharmonicaflute Guitar Pro
close

there isn't a video lesson for this song

chords

Caseys Song

	  		
E|--12+--------------|--------0-----------0-----|--------0-----------0-----| 
B|--12+--------------|--------0-----------0-----|--------0-----------0-----| 
G|--12+--------------|--0--0--0--0--0--0--0--0--|--0--0--0--0--0--0--0--0--| 
D|--12+--------------|--7--6--7--6--7--6--7--6--|--7--6--7--6--7--6--7--6--| 
A|--12+--------------|--4--4--4--4--4--4--4--4--|--4--4--4--4--4--4--4--4--| 
E|--12+--------------|--4--4--4--4--4--4--4--4--|--4--4--4--4--4--4--4--4--| 


Contd. 



E|--------0-----------0------|--------0-----------0------| 
B|--------0-----------0------|--------0-----------0------| 
G|--0--0--0--0--0--0--0--0-0-|--0--0--0--0--0--0--0--0-0-| 
D|--7--6--7--6--7--6--7--6-7-|--7--6--7--6--7--6--7--6-7-| 
A|--0--0--0--0--0--0--0--0-0-|--0--0--0--0--0--0--0--0-0-| 
E|--0--0--0--0--0--0--0--0-0-|--0--0--0--0--0--0--0--0-0-| 



Chorus 



E|--0--0-0-0--0--0--0--0--0--|--0--0-0-0--0--0--0--0--0--| 
B|--0--0-0-0--0--0--0--0--0--|--0--0-0-0--0--0--0--0--0--| 
G|--0--0-0-0--0--0--0--0--0--|--0--0-0-0--0--0--0--0--0--| 
D|--9--6-6-6--6--6--6--6--6--|--9--6-6-6--6--6--6--6--6--| 
A|--7--4-4-4--4--4--4--4--4--|--7--4-4-4--4--4--4--4--4--| 
E|--7--4-4-4--4--4--4--4--4--|--7--4-4-4--4--4--4--4--4--| 


Then... 


E|--0--0-0-0--0--0--0--0--0--|--0--0-0-0--0--0--0--0--0--| 
B|--0--0-0-0--0--0--0--0--0--|--0--0-0-0--0--0--0--0--0--| 
G|--0--0-0-0--0--0--0--0--0--|--0--0-0-0--0--0--0--0--0--| 
D|--9--9-9-9--7--7--7--7--7--|--9--9-9-9--7--7--7--7--7--| 
A|--7--7-7-7--5--5--5--5--5--|--7--7-7-7--5--5--5--5--5--| 
E|--7--0-0-0--0--0--0--0--0--|--7--0-0-0--0--0--0--0--0--| 



Bridge 

Palm Mute 


E|-----------------------------|-----------------------------| 
B|-----------------------------|-----------------------------| 
G|-----------------------------|-----------------------------| 
D|--0--0--0--0--0--0--0--0--0--|--0--0--0--0--0--0--0--0--0--| 
A|--4--4--4--4--4--4--4--4--4--|--4--4--4--4--4--4--4--4--4--| 
E|--4--4--4--4--4--4--4--4--4--|--4--4--4--4--4--4--4--4--4--| 


E|------------------------------|------------------------------| 
B|------------------------------|------------------------------| 
G|------------------------------|------------------------------| 
D|--5\--6--6--6--6--6--6--6--6--|--6---6--6--6--6--6--6--6--6--| 
A|--0---0--0--0--0--0--0--0--0--|--0---0--0--0--0--0--0--0--0--| 
E|--0---0--0--0--0--0--0--0--0--|--0---0--0--0--0--0--0--0--0--| 


E|-----------------------------|-----------------------------| 
B|-----------------------------|-----------------------------| 
G|-----------------------------|-----------------------------| 
D|--6--6--6--6--6--6--6--6--6--|--6--6--6--6--6--6--6--6--6--| 
A|--4--4--4--4--4--4--4--4--4--|--4--4--4--4--4--4--4--4--4--| 
E|--4--4--4--4--4--4--4--4--4--|--4--4--4--4--4--4--4--4--4--| 


E|--0--------------------------| 
B|--0--------------------------|  this is not Palm Muted. 
G|--0--------------------------| 
D|--6--------------------------| 
A|--0--------------------------| 
E|--0--------------------------| 



Outro 


E|--0--0-0-0--0--0--0--0--0--|--0--0-0-0--0--0--0--0--0--| 
B|--0--0-0-0--0--0--0--0--0--|--0--0-0-0--0--0--0--0--0--| 
G|--0--0-0-0--0--0--0--0--0--|--0--0-0-0--0--0--0--0--0--| 
D|--9--6-6-6--6--6--6--6--6--|--4--4-4-4--4--4--4--4--4--| 
A|--7--4-4-4--4--4--4--4--4--|--2--4-4-4--4--4--4--4--4--| 
E|--7--4-4-4--4--4--4--4--4--|--2--2-2-2--2--2--2--2--2--| 

                                                          X2 

E|--0--0-0-0--0--0--0--0--0--|--0--0-0-0--0--0--0--0--0--| 
B|--0--0-0-0--0--0--0--0--0--|--0--0-0-0--0--0--0--0--0--| 
G|--0--0-0-0--0--0--0--0--0--|--5--5-5-5--5--5--5--5--5--| 
D|--2--2-2-2--2--2--2--2--2--|--2--2-2-2--2--2--2--2--2--| 
A|--0--0-0-0--0--0--0--0--0--|--0--0-0-0--0--0--0--0--0--| 
E|--0--0-0-0--0--0--0--0--0--|--0--0-0-0--0--0--0--0--0--| 


then... 


E|--0--0-0-0--0--0--0--0--0--|--0--0-0-0--0--0--0--0--0--| 
B|--0--0-0-0--0--0--0--0--0--|--0--0-0-0--0--0--0--0--0--| 
G|--0--0-0-0--0--0--0--0--0--|--0--0-0-0--0--0--0--0--0--| 
D|--9--6-6-6--6--6--6--6--6--|--9--4-4-4--4--4--4--4--4--| 
A|--7--4-4-4--4--4--4--4--4--|--7--2-2-2--2--2--2--2--2--| 
E|--7--4-4-4--4--4--4--4--4--|--7--2-2-2--2--2--2--2--2--| 


E|--0--0-0-0--0--0--0--0--0--|--0--0-0-0--0--0--0--0--0--| 
B|--0--0-0-0--0--0--0--0--0--|--0--0-0-0--0--0--0--0--0--| 
G|--0--0-0-0--0--0--0--0--0--|--0--0-0-0--0--0--0--0--0--| 
D|--9--7-7-7--7--7--7--7--7--|--9--9-9-9--9--9--9--9--9--| 
A|--7--5-5-5--5--5--5--5--5--|--7--7-7-7--7--7--7--7--7--| 
E|--7--0-0-0--0--0--0--0--0--|--7--0-0-0--0--0--0--0--0--| 


E|--0--0-0-0--0--0--0--0--0--|--12+----------------|| 
B|--0--0-0-0--0--0--0--0--0--|--12+----------------|| 
G|--0--0-0-0--0--0--0--0--0--|--12+----------------|| 
D|--9--6-6-6--6--6--6--6--6--|--12+----------------|| 
A|--7--4-4-4--4--4--4--4--4--|--12+----------------|| 
E|--7--4-4-4--4--4--4--4--4--|--12+----------------|| 
		  

See also:

tabs Neil Young - Southern Man tabs City And Colour - Commentators tabs Terri Clark - Flowers After The Fact tabs City And Colour - Caseys Song tabs Shania Twain - I'm Gonna Getcha Good! tabs Shania Twain - Honey, I'm Home
e-chords

Other versions:

tabs City And Colour - Caseys Song
auto scroll beats size up size down change color hide chords drawings
tab show chords e-chords YouTube Clip e-chords hide all tabs e-chords go to top tab

share