Cinderella

Winds of Change

Cinderella

tabs

by  NUNONUNO

save to print version add songbook text version e-mail correct tuner
chordsukulelecavacokeyboardtabbassdrumsharmonicaflute Guitar Pro
close

there isn't a video lesson for this song

chords

Winds of Change

	  		Cinderella - Winds of Change 
 
1.   
 G                                     C       F     C 
|--------------------|-------------------|-0---0-|-------------------| 
|-----------H-P------T----------H-P------|-3---3-|-----1-----1-------| 
|-----0----0-2-0---0-|-0-----0-0-2-0---0-|-0---0-|---0-----0----H--0-| 
|---0---0--------0---|-----0---------0---|-2---2-|-3-----2-----0-2---| 
|--------------------|-------------------|-3---3-|-------------------| 
|-3------------------|---3---------------|-3-3-3-|-------------------| 
 
2. 
 Eb6              G                   Eb6             F     G 
|---------------|-------------------|---------------|---------| 
|-----1-3-1-----|----------H-P------|-----1-3-1-----|---------| 
|---0-------0---|-----0---0-2-0---0-|---0-------0---|-----0---| 
|-1-----------1-|---0---0-------0---|-1-----------1-|---0-----| 
|---------------|-------------------|---------------|---------| 
|---------------|-3-----------------|---------------|-1-----3-| 
 
4.  
 
|---------------0-|-0---0-3-|---------------|-0-----------| 
|-0-1-0-1/3-1-0-1-|-1-3-1-0-|-0-1-0-1/3-1-0-|-1-3-1-3-0-1-| 
|-0-0-0-2/4-0-0-0-|-0-0-0-0-|-0-0-0-2/4-0-0-|-0-0-0-0-0-1-| 
|-0-2-0-3/5-2-0-2-|-2-2-2-0-|-0-2-0-3/5-2-0-|-2-2-2-2-0-1-| 
|-----------------|---------|---------------|-------------| 
|-----------------|---------|---------------|-------------| 
 
|-----------------|-------3-|---------------|-------------------| 
|-0-1-0-1/3-1-0-1-|-1-3-1-0-|-0-1-0-1/3-1-0-|-----1-----1-------| 
|-0-0-0-2/4-0-0-0-|-0-0-0-0-|-0-0-0-2/4-0-0-|---0-----0----H--0-| 
|-0-2-0-3/5-2-0-2-|-2-2-2-0-|-0-2-0-3/5-2-0-|-3-----2-----0-2---| 
|-----------------|---------|---------------|-------------------| 
|-----------------|---------|---------------|-------------------| 
 
5.   
 C                  G                 F                 G 
|---------3-------|---------3-------|---------1-------|--------------------| 
|-------3---3---3-|-------3---3---3-|-----1-----2---2-|----------H-P-------| 
|-----0-------0---|-----0-------0---|---2---2-----3---|-----0---0-2-0---0--| 
|---0-------------|---0-------------|-3---------------|---0---0-------0----| 
|-3---------------|-2---------------|-----------------|--------------------| 
|-----------------|-----------------|-----------------|-3------------------| 
 
 

		  

Full key step upFull key step up
Half key step upHalf key step up
Half key step downHalf key step down
Full key step downFull key step down
hide glossary

See also:

tabs Jack Johnson - Good People tabs Rage Against The Machine - Killing In The Name (ver. 2) tabs Blue Oyster Cult - Dont Fear The Reaper tabs R.E.M. - Losing my religion tabs Smashing Pumpkins - Today tabs Foo Fighters - Learn to Fly (acoustic version)
e-chords

Other versions:

tabs Cinderella - Winds of Change tabs Lifehouse - Winds Of Change tabs Kutless - Winds of Change
auto scroll beats size up size down change color hide chords drawings
tab show chords e-chords YouTube Clip e-chords hide all tabs e-chords go to top tab

share