Christina Aguilera

home > Christina Aguilera

Beautiful Tab

Christina Aguilera

Difficulty: BeginnerBeginner

by europeu

tuner correct add songbook print version text version save to e-mail
chordsukulelecavacokeyboardtabbassdrummharmonicsflute Guitar Pro
chords

Beautiful

Year: 2002 - Album: Stripped

  		INTRO 
e|----------------------------------------------------------------- 
B|-8---8---8---8---6---6---6---6---4---4---4---4---4---4---4---4--- 
G|-8---8---8---8---6---6---6---6---5---5---5---5---4---4---4---4--- 
D|-----------------------------------------------------------------x2 
A|---6---6---6---6---4---4---4---4---3---3---3---3---2---2---2---2- 
E|----------------------------------------------------------------- 
 
VERSE 
e|----------------------------------------------------------------- 
B|-8---8---8---8---6---6---6---6---4---4---4---4---4---4---4---4--- 
G|-8---8---8---8---6---6---6---6---5---5---5---5---4---4---4---4--- 
D|-----------------------------------------------------------------x2 
A|---6---6---6---6---4---4---4---4---3---3---3---3---2---2---2---2- 
E|----------------------------------------------------------------- 
 
Chorus 
e|--4---4---4---4---3~~-------------------3---3---3---3- 
B|--4---4---4---4---4~~--8---8---6---6----4---4---4---4- 
G|--5---5---5---5---5~~--8---8---6---6----5---5---5---5- 
D|--6---6---6---6---5~~--8---8---6---6----5---5---5---5-x2 
A|--6---6---6---6---3~~--6-6-6-6-4-4-4-4--3-3-3-3-3-3-3- 
E|----4---4---4---4------------------------------------- 
 
e|-4~~~ 
B|-4~~~ 
G|-5~~~ 
D|-6~~~ 
A|-6~~~ 
E|-4~~~ 
 
VERSE 
e|----------------------------------------------------------------- 
B|-8---8---8---8---6---6---6---6---4---4---4---4---4---4---4---4--- 
G|-8---8---8---8---6---6---6---6---5---5---5---5---4---4---4---4--- 
D|-----------------------------------------------------------------x2 
A|---6---6---6---6---4---4---4---4---3---3---3---3---2---2---2---2- 
E|----------------------------------------------------------------- 
 
Chorus 
e|--4---4---4---4---3~~-------------------3---3---3---3- 
B|--4---4---4---4---4~~--8---8---6---6----4---4---4---4- 
G|--5---5---5---5---5~~--8---8---6---6----5---5---5---5- 
D|--6---6---6---6---5~~--8---8---6---6----5---5---5---5-x2 
A|--6---6---6---6---3~~--6-6-6-6-4-4-4-4--3-3-3-3-3-3-3- 
E|----4---4---4---4------------------------------------- 
 
e|-4~~~ 
B|-4~~~ 
G|-5~~~ 
D|-6~~~ 
A|-6~~~ 
E|-4~~~ 
 
INTERLUDE - No matter what we do, no matter what we say.... 
e|----------------------------------------------------------------- 
B|-8---8---8---8---6---6---6---6---4---4---4---4---4---4---4---4--- 
G|-8---8---8---8---6---6---6---6---5---5---5---5---4---4---4---4--- 
D|-----------------------------------------------------------------x4 
A|---6---6---6---6---4---4---4---4---3---3---3---3---2---2---2---2- 
E|----------------------------------------------------------------- 
 
Chorus 
e|--4---4---4---4---3~~-------------------3---3---3---3- 
B|--4---4---4---4---4~~--8---8---6---6----4---4---4---4- 
G|--5---5---5---5---5~~--8---8---6---6----5---5---5---5- 
D|--6---6---6---6---5~~--8---8---6---6----5---5---5---5-x2 
A|--6---6---6---6---3~~--6-6-6-6-4-4-4-4--3-3-3-3-3-3-3- 
E|----4---4---4---4------------------------------------- 
 
e|-4~~~ 
B|-4~~~ 
G|-5~~~ 
D|-6~~~ 
A|-6~~~ 
E|-4~~~ 
 

	  

Search Paypal
auto scroll beats size up size down change color hide chords drawings
tab show chords e-chords YouTube Clip e-chords hide all tabs e-chords go to top tab