Chris Tomlin

home > Chris Tomlin

How Can I Keep From Singing Tab

Chris Tomlin

Difficulty: nolevelnolevel

by sabrjoao

tuner correct add songbook print version text version save to e-mail
chordsukulelecavacokeyboardtabbassdrumsharmonicsflute Guitar Pro
chords

How Can I Keep From Singing

Year: 2006 - Album: See the Morning

  		
Intro: 
   G  Gsus G  Dsus G  Gsus G  Dsus 
e|-3---3---3---3---3---3---3---3---------------------------------| 
B|-3---1---3---3---3---2---3---3---------------------------------| 
G|-0---0---0---2---0---0---0---2---------------------------------| 
D|-0---0---0---0---0---0---0---0---------------------------------| 
A|-x---x---x-------x---x---x-------------------------------------| 
E|-3---3---3-------3---3---3-------------------------------------|  
OR 
e|-5/7-7-7-7-5-7-7/8-8-8-8-7-5-5/7-7-7-7-5-----------------------| 
B|-----------------------------------------8-8/10-10-10-10-8-10--| 
G|---------------------------------------------------------------| 
D|---------------------------------------------------------------| 
A|---------------------------------------------------------------| 
E|---------------------------------------------------------------| 
e|-5/7-7-7-7-5-7-7/8-8-8-8-7-5-5/7-7-7-7-5-----------------------| 
B|-----------------------------------------8-8/10-10-10-10-8-7---| 
G|---------------------------------------------------------------| 
D|---------------------------------------------------------------| 
A|---------------------------------------------------------------| 
E|---------------------------------------------------------------| 
Verse: 
   G  D/F# Em  C9  G  D/F# Em  C9 
e|-3---3---3---3---3---3---3---3---------------------------------| 
B|-3---3---3---3---3---3---3---3---------------------------------| 
G|-0---2---0---0---0---2---0---0---------------------------------| 
D|-0---0---2---2---0---0---2---2---------------------------------| 
A|-2---0---2---3---2---0---2---3---------------------------------| 
E|-3---2---0-------3---2---0-------------------------------------|  
OR 
     G           G             D           D 
e|-----3-----3-----3-----3-------2-----2-----2-----2-------------| 
B|-------3-----3-----3-----3-------3-----3-----3-----3-----------| 
G|-2/4-----4-----4-----4-----4\2-----2-----2-----2---------------| 
D|---------------------------------------------------------------| 
A|---------------------------------------------------------------| 
E|---------------------------------------------------------------| 
           C9          C9 
e|-3-5-7-3-0-----0-----------0-----------------------------------| 
B|-------------3---3-------3---3---------------------------------| 
G|-----------0-------0---0-------0-------------------------------| 
D|-2-4-5-2-------------------------------------------------------| 
A|---------3-----------3-----------------------------------------| 
E|---------------------------------------------------------------| 
     G           G             D           D 
e|-----3-----3-----3-----3-------2-----2-----2-----2-------------| 
B|-------3-----3-----3-----3-------3-----3-----3-----3-----------| 
G|-2/4-----4-----4-----4-----4\2-----2-----2-----2---------------| 
D|---------------------------------------------------------------| 
A|---------------------------------------------------------------| 
E|---------------------------------------------------------------| 
           C9          C9 
e|-3-5-7-3-0-----0-----------0-----------------------------------| 
B|-------------3---3-------3---3---------------------------------| 
G|-----------0-------0---0-------0-------------------------------| 
D|-2-4-5-2-------------------------------------------------------| 
A|---------3-----------3-----------------------------------------| 
E|---------------------------------------------------------------| 
Chorus 1: 
   G  Dsus C9 G/B  C9 Dsus G  Dsus C9 G/B  C9 Dsus 
e|-3---3---3---3---3---3---3---3---3---3---3---3-----------------| 
B|-3---3---3---3---3---3---3---3---3---3---3---3-----------------| 
G|-0---2---0---2---0---2---0---2---0---2---0---2-----------------| 
D|-0---0---2---0---2---0---0---0---2---0---2---0-----------------| 
A|-2-------3---2---3-------2-------3---2---3---------------------| 
E|-3-----------------------3-------------------------------------|  
OR 
   G  Dsus C9 G/B  C9 Dsus G  Dsus C9 G/B  C9 Dsus 
e|-3---3---3---3---3---3---3---3---3---3---3---3-----------------| 
B|-3---3---3---3---3---3---3---3---3---3---3---3-----------------| 
G|-0---2---0---0---0---2---0---2---0---0---0---2-----------------| 
D|-0---0---x---0---x---0---0---0---x---0---x---0-----------------| 
A|-x-------3---2---3-------x-------3---2---3---------------------| 
E|-3-----------------------3-------------------------------------| 
Interlude 1: 
   G  Gsus G  Dsus 
e|-3---3---3---3-------------------------------------------------| 
B|-3---1---3---3-------------------------------------------------| 
G|-0---0---0---2-------------------------------------------------| 
D|-0---0---0---0-------------------------------------------------| 
A|-x---x---x-----------------------------------------------------| 
E|-3---3---3-----------------------------------------------------|  
OR 
e|-5/7-7-7-7-5-7-7/8-8-8-8-7-5-5/7-7-7-7-5-----------------------| 
B|-----------------------------------------8-8/10-10-10-10-8-7---| 
G|---------------------------------------------------------------| 
D|---------------------------------------------------------------| 
A|---------------------------------------------------------------| 
E|---------------------------------------------------------------| 
Verse 
Chorus 1 
Interlude 2: 
   G 
e|-3-------------------------------------------------------------| 
B|-3-------------------------------------------------------------| 
G|-0-------------------------------------------------------------| 
D|-0-------------------------------------------------------------| 
A|-x-------------------------------------------------------------| 
E|-3-------------------------------------------------------------|  
OR 
   G  Gsus G 
e|-3---3-3-3-----------------------------------------------------| 
B|-3---0h2p0-----------------------------------------------------| 
G|-0---0-0-0-----------------------------------------------------| 
D|-0---0-0-0-----------------------------------------------------| 
A|-x---x-x-x-----------------------------------------------------| 
E|-3---3-3-3-----------------------------------------------------| 
Bridge: 
  Am7 G/B C9 Dsus Am7 G/B C9 Dsus Am7 G/B C9 Dsus Am7 G/B C9 Dsus 
e|-3---3---3---3---3---3---3---3---3---3---3---3---3---3---3---3-| 
B|-1---3---3---3---1---3---3---3---1---3---3---3---1---3---3---3-| 
G|-0---0---0---2---0---0---0---2---0---0---0---2---0---0---0---2-| 
D|-2---0---2---0---2---0---2---0---2---0---2---0---2---0---2---0-| 
A|-0---2---3-------0---2---3-------0---2---3-------0---2---3-----| 
E|---------------------------------------------------------------| 
  Am7 G/B C9 Dsus Am7 G/B  C9 Dsus 
e|-3---3---3---3---3---3---3---3---------------------------------| 
B|-1---3---3---3---1---3---3---3---------------------------------| 
G|-0---0---0---2---0---0---0---2---------------------------------| 
D|-2---0---2---0---2---0---2---0---------------------------------| 
A|-0---2---3-------0---2---3-------------------------------------| 
E|---------------------------------------------------------------|  
OR 
e|---------------------------------------------------------------| 
B|-----1-------3-----5-------7-----1-------3-----5-------7-------| 
G|---0-------0-----5-------7-----0-------0-----5-------7---------| 
D|-2-----2/4-----5-----5/7-----2-----2/4-----5-----5/7-----------| 
A|---------------------------------------------------------------| 
E|---------------------------------------------------------------| 
  Am7         C/B          C               D 
e|-------0-----------0-------------------------------------------| 
B|-----1---1-------3---3-----------1-------------3---------------| 
G|---0-------0---0-------0-------0---0---------0---0-------------| 
D|---------------------------0h2-------2-----4-------4-----------| 
A|-0-----------2-----------3-------------3/5---------------------| 
E|---------------------------------------------------------------| 
  Am7         C/B          C               D 
e|-------0-----------0-------------------------------------------| 
B|-----1---1-------3---3-----------1-------------3---------------| 
G|---0-------0---0-------0-------0---0---------0---0-------------| 
D|---------------------------0h2-------2-----4-------4-----------| 
A|-0-----------2-----------3-------------3/5---------------------| 
E|---------------------------------------------------------------| 
  Am7 C/B  C   D  Am7 C/B  C   D 
e|-3---0---3---5---3---0---3---5---------------------------------| 
B|-1---3---1---3---1---3---1---3---------------------------------| 
G|-0---0---0---0---0---0---0---0---------------------------------| 
D|-2---0---2---4---2---0---2---4---------------------------------| 
A|-0---2---3---5---0---2---3---5---------------------------------| 
E|---------------------------------------------------------------| 
Chorus 2: 
   G  Dsus C9 G/B  C9 Dsus G  Dsus C9 G/B  C9 Dsus 
e|-3---3---3---3---3---3---3---3---3---3---3---3-----------------| 
B|-3---3---3---3---3---3---3---3---3---3---3---3-----------------| 
G|-0---2---0---2---0---2---0---2---0---2---0---2-----------------| 
D|-0---0---2---0---2---0---0---0---2---0---2---0-----------------| 
A|-2-------3---2---3-------2-------3---2---3---------------------| 
E|-3-----------------------3-------------------------------------| 
  Am7 G/B C9 Dsus Am7 G/B  C9 Dsus 
e|-3---3---3---3---3---3---3---3---------------------------------| 
B|-1---3---3---3---1---3---3---3---------------------------------| 
G|-0---0---0---2---0---0---0---2---------------------------------| 
D|-2---0---2---0---2---0---2---0---------------------------------| 
A|-0---2---3-------0---2---3-------------------------------------| 
E|---------------------------------------------------------------|  
OR 
   G  Dsus C9 G/B  C9 Dsus G  Dsus C9 G/B  C9 Dsus 
e|-3---3---3---3---3---3---3---3---3---3---3---3-----------------| 
B|-3---3---3---3---3---3---3---3---3---3---3---3-----------------| 
G|-0---2---0---0---0---2---0---2---0---0---0---2-----------------| 
D|-0---0---x---0---x---0---0---0---x---0---x---0-----------------| 
A|-x-------3---2---3-------x-------3---2---3---------------------| 
E|-3-----------------------3-------------------------------------| 
  Am7 G/B C9 Dsus Am7 G/B  C9 Dsus 
e|-3---3---3---3---3---3---3---3---------------------------------| 
B|-1---3---3---3---1---3---3---3---------------------------------| 
G|-0---0---0---2---0---0---0---2---------------------------------| 
D|-2---0---x---0---2---0---x---0---------------------------------| 
A|-0---2---3-------0---2---3-------------------------------------| 
E|---------------------------------------------------------------| 
Outro: 
   G  Gsus G  Dsus G  Gsus G  Dsus G 
e|-3---3---3---3---3---3---3---3---3-----------------------------| 
B|-3---1---3---3---3---2---3---3---3-----------------------------| 
G|-0---0---0---2---0---0---0---2---0-----------------------------| 
D|-0---0---0---0---0---0---0---0---0-----------------------------| 
A|-x---x---x-------x---x---x-------x-----------------------------| 
E|-3---3---3-------3---3---3-------3-----------------------------|  
OR 
e|-5/7-7-7-7-5-7-7/8-8-8-8-7-5-5/7-7-7-7-5-----------------------| 
B|-----------------------------------------8-8/10-10-10-10-8-10--| 
G|---------------------------------------------------------------| 
D|---------------------------------------------------------------| 
A|---------------------------------------------------------------| 
E|---------------------------------------------------------------| 
                                                               G 
e|-5/7-7-7-7-5-7-7/8-8-8-8-7-5-5/7-7-7-7-5---------------------3-| 
B|-----------------------------------------8-8/10-10-10-10-8-7-3-| 
G|-------------------------------------------------------------0-| 
D|-------------------------------------------------------------0-| 
A|-------------------------------------------------------------x-| 
E|-------------------------------------------------------------3-| 
| /  slide up 
| \  slide down 
| h  hammer-on 
| p  pull-off 
| ~  vibrato 
| +  harmonic 
| x  Mute note 
	  

Full key step upFull key step up
Half key step upHalf key step up
Half key step downHalf key step down
Full key step downFull key step down
Search Paypal
auto scroll beats size up size down change color hide chords drawings
tab show chords e-chords YouTube Clip e-chords hide all tabs e-chords go to top tab