Chris Cornell

You Know My Name

Chris Cornell

tabs Beginner beginner

by  MR.MACKAY

save to print version add songbook text version e-mail correct tuner
chordsukulelecavacokeyboardtabbassdrumsharmonicaflute Guitar Pro
close

there isn't a video lesson for this song

chords

You Know My Name

	  		-------------------------------- 
CHRIS CORNELL - YOU KNOW MY NAME 
-------------------------------- 
----- 
INTRO 
----- 

Guitar 1 

-2-2-3-3-0-0-| 
-3-3-3-3-0-0-| 
-4-4-3-3-1-1-| 
-4-4-5-5-2-2-| x4 
-2-2-5-5-2-2-| 
-----3-3-0-0-| 

Guitar 2 

d-----------------  d----------------4 
a-2-4-2-5b-2-4-2-5  a-2-4-2-5b-2-4-2-- x2 
e-----------------  e----------------- 

d----------| 
a-5b-4-2---| 
e--------2-| 


----- 
VERSE 
----- 

Guitar 1 

-2-------------------------3-------------------2------------2-|  
-2-------------------------3-------------------3------------2-|  
-3-------------------------3-------------------2------------2-|  
-4-------------------------5--------------------------------4-| x2 
-2-------------------------5--------------------------------4-|  
---------------------------3--------------------------------2-|  
  If you take a life... ...get,odds are...  ...like what it is 

Guitar 2 (palm muted) 

d-4------5------4------5-----| 
a-4-x16--5-x16--4-x16--5-x16-| x2 
e-2------3------2------3-----| 


---------- 
PRE-Chorus 
---------- 

Guitar 1 

-3----------2----------------2-----0-----3-------- 
-3----------2----------------3-----2-----3-------- 
-0----------2----------------4-----2-----0-------- 
-0-x8-------4-x8-------------4-x4--2-x4--0-x8----- x2 
-2----------4----------------2-----0-----2-------- 
-3----------2----------------------------3-------- 
  I've seen angels fall from blind-ing   heights.. 

-2----| 
-2----| 
-2----| 
-4-x9-| 
-4----| 
-2----| 
 Just next... 

Guitar 2 

d----------------------------------------------------| 
a-3-2-7-5-3---3-2-7-9-10--10-12-10-2-2-2-2-2-2-2-2-2-| 
e----------------------------------------------------| 


------ 
Chorus 
------ 

Guitar 1 + 2 

-2--------------------3---------------------0---------- 
-3--------------------3---------------------0---------- 
-4--------------------0---------------------1---------- 
-4-x5-----------------0-x5------------------2-x10------ x4 
-2--------------------2---------------------2---------- 
----------------------3---------------------0---------- 
 Arm yourself because no-one else here will save you... 

-------------0-0-------------------0-0---------------2-2-3-3-0-0 
-------------0-0-------------------0-0---------------3-3-3-3-0-0 
-------------1-1-------------------1-1---------------4-4-3-3-1-1 
-------------2-2-------------------2-2---------------4-4-5-5-2-2 
-------------2-2-------------------2-2---------------2-2-5-5-2-2 
-------------0-0-------------------0-0-------------------3-3-0-0 
 The coldest blood runs through my veins, you know my name 

----- 
VERSE 
----- 

------ 
Chorus 
------ 
(Dont play the last 3 chords) 

----- 
BREAK 
----- 

Guitar 1 

-3-----0-----3-----0----| 
-3-----0-----3-----0----| 
-0-----1-----0-----1----| 
-0-x8--2-x8--0-x8--2-x1-| 
-2-----2-----2-----2----| 
-3-----0-----3-----0----| 

Guitar 2 (palm muted) 

d-4-----5-----4-----5----| 
a-4-x8--5-x8--4-x8--5-x1-| 
e-2-----3-----2-----3----| 

------ 
Chorus 
------ 
(Dont play the last 3 chords) 

--- 
END 
--- 

Guitar 1 

-2-2-3-3-0-0-| 
-3-3-3-3-0-0-| 
-4-4-3-3-1-1-| 
-4-4-5-5-2-2-| x4 
-2-2-5-5-2-2-| 
-----3-3-0-0-| 

Guitar 2 

d-2-5-6---2-5-6-9---2-5-6-9-| 
a---------------------------| 
e---------------------------| 



------ 
LYRICS 
------ 

If you take a life do you know what you'll give?  
Odds are, you won't like what it is  
When the storm arrives, would you be seen with me?  
By the merciless eyes I've deceived?  

I've seen angels fall from blinding heights  
But you yourself are nothing so divine  
Just next in line  

Arm yourself because no-one else here will save you  
The odds will betray you  
And I will replace you  
You can't deny the prize it may never fulfill you  
It longs to kill you  
Are you willing to die?  

The coldest blood runs through my veins  
You know my name  

If you come inside things will not be the same  
When you return to the knives  
And if you think you've won  
You never saw me change  
The game that we have been playing  

I've seen diamonds cut through harder men  
Than you yourself  
But if you must pretend  
You may meet your end  

Arm yourself because no-one else here will save you  
The odds will betray you  
And I will replace you  
You can't deny the prize it may never fulfill you  
It longs to kill you  
Are you willing to die?  

The coldest blood runs through my veins  

Try to hide your hand  
Forget how to feel  
(Forget how to feel)  

Life is gone with just a spin of the wheel  
(Spin of the wheel)  

Arm yourself because no-one else here will save you  
The odds will betray you  
And I will replace you  
You can't deny the prize it may never fulfill you  
It longs to kill you  
Are you willin' to die?  

The coldest blood runs through my veins  
You know my name  
(You know my name)  
You know my name  
(You know my name)  
You know my name  
You know my name  
You know my nam 

		  

See also:

tabs Deep Purple - Smoke On The Water (Easy Intro) tabs Eagles - Take It Easy tabs Billy Idol - White Wedding tabs Status Quo - Whatever you want tabs Dire Straits - Sultans of Swing tabs Dire Straits - Brothers in Arms
e-chords

Other versions:

tabs Chris Cornell - You Know My Name
auto scroll beats size up size down change color hide chords drawings
tab show chords e-chords YouTube Clip e-chords hide all tabs e-chords go to top tab

share