Chon

Wut The Poop

Chon

tabs

by  ABELAMIN

save to print version add songbook text version e-mail correct tuner
chordsukulelecavacokeyboardtabbassdrumsharmonicaflute Guitar Pro
close

there isn't a video lesson for this song

chords

Wut The Poop

	  		 

Guitars 1 & 2: 0:00-0:04 
e|------------------------------|--------------------------------| 
B|-------7------7-x-7------7--7-|-7-------7------7-x-7------7--7-| 
G|-------8------8-x-8------8--8-|-8-------8------8-x-8------8--8-| 
D|-------6------6-x-6------6--6-|-6-------6------6-x-6------6--6-| 
A|-------7------7-x-7------7--7-|-7-------7------7-x-7------7--7-| 
E|-0--0-------------------------|------0-------------------------| 

Guitars 1 & 2: 0:05-0:07 
e|-------7------7-x-7---| 
B|-------9------9-x-9---| 
G|-------8------8-x-8---| 
D|-------9------9-x-9---| 
A|-------7------7---7---| 
E|-0--0-----------------| 

Guitar 1: 0:08-0:11 
e|-------------------11-12-11---------------------| 
B|----------------12----------12------------------| 
G|-------------13----------------13---------------| 
D|-------11-14----------------------14-11---------| 
A|----11----------------------------------11------| 
E|-12----------------------------------------12---| 

Guitar 2: 0:08-0:11 
e|-------------------14-16-14---------------------| 
B|----------------16----------16------------------| 
G|-------------16----------------16---------------| 
D|----------18----------------------18------------| 
A|-------18----------------------------18---------| 
E|-16-19----------------------------------19-16---| 
		  

auto scroll beats size up size down change color hide chords drawings
tab show chords e-chords YouTube Clip e-chords hide all tabs e-chords go to top tab

share