Choking Victim

home > Choking Victim

Money Tab

Choking Victim

Difficulty: nolevelnolevel

tuner correct add songbook print version text version save to e-mail
chordsukulelecavacokeyboardtabbassdrumsharmonicsflute Guitar Pro
chords

Money

  		Tabbed By: lessthanhugh 
Band: Choking Victim 
Song: Money 
Album: No God?s No Managers  
 
Verse: 
 
E-3-3-3-3-4-4-4-4: 
B-3-3-3-3-4-4-4-4: 
G-4-4-4-4-5-5-5-5: 
D-5-5-5-5-6-6-6-6: 
A----------------: --repeat this 4 times per verse. 
E----------------: 
 
Chorus: 
 
  G  G#  D#  A# 
E--------------: 
B--------------: 
G--------8-----: 
D-5--6---8---8-: 
A-5--6---6---8-: 
E-3--4-------6-: 
 
(8 strums per chord) 
 
Other guitar part 
E----------: 
B----------: 
G-8-9-11-13: 
D----------: 
A-6-7-9--11: 
E----------: 
 

	  

Full key step upFull key step up
Half key step upHalf key step up
Half key step downHalf key step down
Full key step downFull key step down
Search Paypal
auto scroll beats size up size down change color hide chords drawings
tab show chords e-chords YouTube Clip e-chords hide all tabs e-chords go to top tab