Children Of Bodom

Taste Of My Scythe

Children Of Bodom

tabs

save to print version add songbook text version e-mail correct tuner
chordsukulelecavacokeyboardtabbassdrumsharmonicaflute Guitar Pro
close

there isn't a video lesson for this song

chords

Taste Of My Scythe

	  		
Tabbed by Brian ([email protected]) 
tuned down a whole step 
 
|--------------| 
|--------------| 
|--------------| 
|-9-9-9------2-| 
|-7-7-7------2-| 
|--------0-0-0-|     x4 
 
|----------------------------------------------------| 
|----------------------------------------------------| 
|----------------------------------------------------| 
|-7-7-7--5-5-7--------5-5-5--5-5-7--------5--7-----7-| 
|-5-5-5--3-3-5--------3-3-3--3-3-5--------3--5-----5-| 
|----------------------------------------------------| 
 
|----------------------------------24-| 
|-------------------------------------| 
|-------------------------------------| 
|-5-5-5--5-5-7-7-7-7-7--5-5-5-5-------| 
|-3-3-3--3-3-5-5-5-5-5--3-3-3-3-------| 
|-------------------------------------| 
 
|---------------------------------------------------------| 
|---------------------------------------------------------| 
|---------------------------------------------------------| 
|----10-9---7-9---10-9-----------10-9---7-9---10-9--------| 
|----8--7---5-7---8--7-----------8--7---5-7---8--7--------| 
|-0---------------------00-00--0--------------------00-00-| 
 
|-------------------------------------------| 
|-------------------------------------------| 
|-------------------------------------------| 
|----10-9---7-9---10-9-----------10-9---7-9-| 
|----8--7---5-7---8--7-----------8--7---5-7-| 
|-0---------------------00-00--0------------| 
 
|--------------------12-10-12-10-8------------| 
|----------------------------------12-10------| 
|----------------------------------------12p9-| 
|--------7-9-10-9-10--------------------------| 
|-7-9-10--------------------------------------| 
|---------------------------------------------| 
 
Riff 1 
|------------------------------------------------------------| 
|------------------------------------------------------------| 
|------------------------------------------------------------| 
|-----9------7------9------7------9------7--9-7-10-7-9-7-----| 
|-----7------5------7------5------7------5---------------9p7-| 
|-0-0----0-0----0-0----0-0----0-0----0-0---------------------| 
 
|------------------------------------------------------------| 
|-------------------------------------------------------7----| 
|----------------------------------------------------9-----9-| 
|-----9------7------9------7------9------7-------------------| 
|-----7------5------7------5------7------5--77777777---------| 
|-0-0----0-0----0-0----0-0----0-0----0-0---------------------| 
 
|------------------------------------------------------------| 
|------------------------------------------------------------| 
|------------------------------------------------------------| 
|-----9------7------9------7------9------7--9-7-10-7-9-7-----| 
|-----7------5------7------5------7------5---------------9p7-| 
|-0-0----0-0----0-0----0-0----0-0----0-0---------------------| 
 
|------------------------------------------------------------| 
|-----------------------------------------------7-----7--9---| 
|---------------------------------------------9-----9------7-| 
|-----9------7------9------7------9------7--7-----7----------| 
|-----7------5------7------5------7------5-------------------| 
|-0-0----0-0----0-0----0-0----0-0----0-0---------------------| 
 
 
|------------------------------------------------| 
|------------------------------------------------| 
|------------------------------------------------| 
|------------------------------------------------| 
|-88888888-77777777-55555555-88888888-77777777-5-| 
|------------------------------------------------| 
 
          |------------------------------------------------| 
          |------------------------------------------------| 
          |------------------------------------------------| 
          |------------------------------------------------| 
 55555555 |-88888888-77777777-55555555-88888888-77777777-5-| 
          |------------------------------------------------| 
 
 
|-12--15--14------12--19--20--17--19--22--17--14--15--12--14-----| 
|-------------15----------------------------------------------15-| 
|----------------------------------------------------------------| 
|----------------------------------------------------------------| 
|----------------------------------------------------------------| 
|----------------------------------------------------------------| 
 
|-12--15--14------12--19--20--17--19--22--17--14--15--12--14-----| 
|-------------15----------------------------------------------15-| 
|----------------------------------------------------------------| 
|----------------------------------------------------------------| 
|----------------------------------------------------------------| 
|----------------------------------------------------------------| 
 
|-----------------------------| 
|-----------------------------| 
|---------------------9--7--9-| 
|-----------7--9--10----------| 
|-7--9--10--------------------| 
|-----------------------------| 
 
 
|------------------------------------------|----------------------------------| 
|------------------------------------------|---12-10------12-10---------------| 
|-9----9-11-9----9-11-12--12-12-11-9-------|-9-------12-9-------12-11-9----9^-| 
|---12--------12---------------------12----|----------------------------12----| 
|------------------------------------------|----------------------------------| 
|------------------------------------------|----------------------------------| 
 
 
|----------------------------------------------------------| 
|----------------------------------------------------------| 
|----------------------------------------------------------| 
|-----10-9---7-9---10-9-----------10-9---7-9---10-9--------| 
|-----8--7---5-7---8--7-----------8--7---5-7---8--7--------| 
|-0-0--------------------00-00--0--------------------00-00-| 
 
|-------------------------------------------------12-10-12-10-8------------| 
|---------------------------------------------------------------12-10------| 
|---------------------------------------------------------------------12p9-| 
|-10\9----7/9----10\9-------------10\9----7/9------------------------------| 
|-8-\7----5/7----8-\7-------------8-\7----5/7------------------------------| 
|-------0------0------00000000--0-------0------0---------------------------| 
 
 
Riff 1 
 
 
|------------------------------------------------------| 
|------------------------------------------------------| 
|------------------------------------------------------| 
|------------------------------------------------------| 
|-7777777777777777-55555555-33333333-77777777-55555555-| 
|------------------------------------------------------| 
 
|------------------------------------------------------| 
|------------------------------------------------------| 
|-----------------------------I know that this---------| 
|-------------------------------------is wrong---------| 
|-7777777777777777-55555555-33333333-99999999-77777777-| 
|------------------------------------------------------| 
 
|-14--17--16------14--21--22--19--21--24--19--16--17--14--16-----| 
|-------------17----------------------------------------------17-| 
|----------------------------------------------------------------| 
|----------------------------------------------------------------| 
|----------------------------------------------------------------| 
|----------------------------------------------------------------| 
 
|-14--17--16------14--21--22--19--21--24--19--16--17--14--16-----| 
|-------------17----------------------------------------------17-| 
|----------------------------------------------------------------| 
|----------------------------------------------------------------| 
|----------------------------------------------------------------| 
|----------------------------------------------------------------| 
 
|----------14h16h17----------15h17h19h17h15-| 
|-14h16h17----------15h17h19----------------| 
|-------------------------------------------| 
|-------------------------------------------| I don't know if this is right 
|-------------------------------------------| 
|-------------------------------------------| 
 
 
Riff 2 
 
 
Play this just before the solo 
|--------------| 
|--------------| 
|--------------| 
|-9-9-9------2-| 
|-7-7-7------2-| 
|--------0-0-0-| 
 
Solo (this part of solo is just the beginning to it) 
 
|-10/12-13-15-17--15-13-12-15-13-15-17-19-20-21-| 
|-----------------------------------------------| 
|-----------------------------------------------| 
|-----------------------------------------------| 
|-----------------------------------------------| 
|-----------------------------------------------| 
 
|-22-22--22-22--20-20--20-19-20-19-17----| 
|-------------------------------------20-| 
|----------------------------------------| 
|----------------------------------------| 
|----------------------------------------| 
|----------------------------------------| 
 
Play this after the solo (play 2 times) 
|----------------------------------------------------------| 
|----------------------------------------------------------| 
|----------------------------------------------------------| 
|-----10-9---7-9---10-9-----------10-9---7-9---10-9--------| 
|-----8--7---5-7---8--7-----------8--7---5-7---8--7--------| 
|-0-0--------------------00-00--0--------------------00-00-| 
 
|----------------------------------------------------------| 
|----------------------------------------------------------| 
|----------------------------------------------------------| 
|-10\9----7/9----10\9-------------10\9----7/9----10\9------| 
|-8-\7----5/7----8-\7--------------8\7----5/7----8-\7------| 
|-------0------0------00000000--0-------0------0------0000-| 
 

		  

auto scroll beats size up size down change color hide chords drawings
tab show chords e-chords YouTube Clip e-chords hide all tabs e-chords go to top tab

share