Children Of Bodom

Lil Bloodred Ridn Hood

Children Of Bodom

tabs Intermediate intermediate

save to print version add songbook text version e-mail correct tuner
chordsukulelecavacokeyboardtabbassdrumsharmonicaflute Guitar Pro
close

there isn't a video lesson for this song

chords

Lil Bloodred Ridn Hood

	  		LIL? BLOODRED RIDN? HOOD 
from: CHILDREN OF BODOM 
      HATE CREW DEATHROLL 
 
Music and lyrics by Alexi Laiho 
Tabbed by Martin Brandt 
 
 
------------------------------------------------------- 
Tune down one whole step 
 
4/4 time, 210 bpm 
 
Riff A 
 
both guitars 
|---------------------------------------------------------------------| 
|---------------------------------------------------------------------| 
|-9-9-9101010-7-7-7-9-9-9121212-7-7-7-9-9-9101010-7-7-9---------------| 
|-9-9-9101010-7-7-7-9-9-9121212-7-7-7-9-9-9101010-7-7-9---------------| 
|-7-7-7-8-8-8-5-5-5-7-7-7101010-5-5-5-7-7-7-8-8-8-5-5-7-2-3-2-3-2-3-2-| 
|-------------------------------------------------------0-1-0-1-0-1-0-| 
                                                        . . . . . . .  
|---------------------------------------------------------------------| 
|---------------------------------------------------------------------| 
|-9-9-9101010-7-7-7-9-9-9121212-7-7-7-9-9-9101010-7-7-9---4---5---7---| 
|-9-9-9101010-7-7-7-9-9-9121212-7-7-7-9-9-9101010-7-7-9---4---5---7---| 
|-7-7-7-8-8-8-5-5-5-7-7-7101010-5-5-5-7-7-7-8-8-8-5-5-7---2---3---5---| 
|---------------------------------------------------------------------| 
 
Riff B 
|-----------------------------------------------------------------| 
|-----------------------------------------------------------------| 
|-----------------------------------------------------------------| 
|-----------------------5---3333--------------------5---7--10---9-| 
|---7---7---7---7---7---7---5555----7---7---7---7-----------------| 
|-0---0---0---0---0---0---0-------0---0---0---0---0---0---0---0---| 
| .   .   .   .   .   .           .   .   .   .   .   .   .   . 
|-----------------------------------------------------------------| 
|-----------------------------------------------------------------| 
|-----------------------------------------------------------------| 
|--------------------------------------------------5---7---10---9-| 
|---7---7---7---7---7---7---5---5---7---7---7---7-----------------| 
|-0---0---0---0---0---0---0---0---0---0---0---0---0---0---0---0---| 
  .   .   .   .   .   .   .   .   .   .   .   .   .   .   .   . 
 
|-------------------------------------------------{7}-------------| 
|-----------------------------------------------------------------| 
|-----------------------------------------------------------------| 
|-----------------------5---3333-------------------------------7--| 
|---7---7---7---7---7---7---5555----7---7---7---7------7-910-9----| 
|-0---0---0---0---0---0---0-------0---0---0---0------10---------10| 
| .   .   .   .   .   .   .        .   .   .   .    
|-----------------------------------------------------------------| 
|-----------------------------------------------------------------| 
|-------------------------------------------------------7---------| 
|--------------------------------------------------------10-9-7---| 
|---7---7---7---7---7---7---5---5---7---7---7---7--7-10--------109| 
|-0---0---0---0---0---0---0---0---0---0---0---0-------------------| 
  .   .   .   .   .   .   .   .   .   .   .   . 
 
|-----------------------------------------------------------------| 
|-----------------------------------------------------------------| 
|----------------------------------------------------------12--11-| 
|-----------------------------------------------------------------| 
|--10--10--10--10--10--10---9---9--10--10--10--10---9--10---------| 
|-0---0---0---0---0---0---0---0---0---0---0---0---0---0---0---0---| 
| .   .   .   .   .   .   .   .   .   .   .   .   .   .   .   . 
|-----------------------------------------------------------------| 
|-----------------------------------------------------------------| 
|-----------------------------------------------------------------| 
|--------------------------------------------------5---7---10---9-| 
|---7---7---7---7---7---7---5---5---7---7---7---7-----------------| 
|-0---0---0---0---0---0---0---0---0---0---0---0---0---0---0---0---| 
  .   .   .   .   .   .   .   .   .   .   .   .   .   .   .   . 
 
|-----------------------------------------------------------------| 
|-----------------------------------------------------------------| 
|----------------------------------------------4-------5----------| 
|---------------------------------5------8-----5--555--7----4-----| 
|--10--10--10--10--10--10---9---9-7--777-9--999-------------5-----| 
|-0---0---0---0---0---0---0---0-----------------------------------| 
| .   .   .   .   .   .   .   .      ...    ...   ...    
|-----------------------------------------------------------------| 
|-----------------------------------------------------------------| 
|-----------------------------------------------7-------9---------| 
|---------------------------------9-----11------5--555--7---7-----| 
|---7---7---7---7---7---7---5---5-7--777-9--999-------------5-----| 
|-0---0---0---0---0---0---0---0-----------------------------------| 
  .   .   .   .   .   .   .   .      ...    ...    ... 
 
Riff C 
|-------------------------------------------------------------------| 
|-------------------------------------------------------------------| 
|---------12---9---7-7-7-7-5-5-5-5---------12---9-------------------| 
|---------12---9---7-7-7-7-5-5-5-5---------12---9---8-9-----7-8-7---| 
|---------10---7---5-5-5-5-3-3-3-3---------10---7-------7-10------7-| 
|-0-0---0--------------------------0-0-0-0--------------------------| 
| . .   .                          . . . . 
|-------------------------------------------------------------------| 
|-------------------------------------------------------------------| 
|---------12---9---------------------------12---9-------------------| 
|---------12---9-------4-7-----2-5---------12---9-------7-----------| 
|-7-7---7-10---7---7-5-----5-3-------------10---7---7-5---5-6-7-6-5-| 
|----------------------------------0-0-0-0--------------------------| 
  . .   .                          . . . .          . .     . . . . 
 
Riff D 
|-------------------------------------------|-------------------------------------------| 
|-------------------------------------------|-------------------------------------------| 
|-----------------------------------7-------|-----------------------------------7-------| 
|-------------4-----4-----2---------7-------|-------------4-----4-----2---------7-------| 
|-4--4-----4--4-----4-----2---------5-------|-4--4-----4--4-----4-----2---------5-------| 
|-2--2-----2--2-----2-----0-----------------|-2--2-----2--2-----2-----0-----------------|  
| 
|-------------12----------------------------|-------------12----------------------------| 
|------------------15-14-12-----------------|------------------15-14-12-----------------| 
|-11-13-14-11---11------------14-13-14---11-|-11-13-14-11---11------------14-13-14~-----| 
|-------------------------------------------|-------------------------------------------| 
|-------------------------------------------|-------------------------------------------| 
|-------------------------------------------|-------------------------------------------| 
 
 
|-------------------------------------------|----------------------------------------------| 
|-------------------------------------------|----------------------------------------------| 
|-----------------------------------7-------|-------------------------9-9-9-9-9-9-9-9------| 
|-------------4-----4-----2---------7-------|-------------4-----4-----9-9-9-9-9-9-9-9------| 
|-4--4-----4--4-----4-----2---------5-------|-4--4-----4--4-----4-----7-7-7-7-7-7-7-7------| 
|-2--2-----2--2-----2-----0-----------------|-2--2-----2--2-----2--------------------------|  
| 
|-------------12----------------------------|-------------12--------12-14-16-12-14-16-12-16| 
|------------------15-14-12-----------------|------------------15-14-----------------------| 
|-11-13-14-11---11------------14-13-14---11-|-11-13-14-11---11-----------------------------| 
|-------------------------------------------|----------------------------------------------| 
|-------------------------------------------|----------------------------------------------| 
|-------------------------------------------|----------------------------------------------| 
 
 
|-------------------------------------------|-------------------------------------------| 
|-------------------------------------------|-------------------------------------------| 
|-----------------------------------7-------|-----------------------------------7-------| 
|-------------4-----4-----2---------7-------|-------------4-----4-----2---------7-------| 
|-4--4-----4--4-----4-----2---------5-------|-4--4-----4--4-----4-----2---------5-------| 
|-2--2-----2--2-----2-----0-----------------|-2--2-----2--2-----2-----0-----------------|  
| 
|-------------12----------------------------|-------------12----------------------------| 
|------------------15-14-12-----------------|------------------15-14-12-----------------| 
|-11-13-14-11---11------------14-13-14---11-|-11-13-14-11---11------------14-13-14a.h.--| 
|-------------------------------------------|-------------------------------------------| 
|-------------------------------------------|-------------------------------------------| 
|-------------------------------------------|-------------------------------------------| 
| 
|-------------12----------------------------|-------------12----------------------------| 
|------------------15-14-12-----------------|------------------15-14-12a.h.-------------| 
|-11-13-14-11---11------------14-13-11------|-11-13-14-11---11------------14-13-14a.h.--| 
|----------------------------------------12-|-------------------------------------------| 
|-------------------------------------------|-------------------------------------------| 
|-------------------------------------------|-------------------------------------------| 
 
 
|-------------------------------------------|----------------------------------------------| 
|-------------------------------------------|----------------------------------------------| 
|-----------------------------------7-------|-------------------------9-9-9-9-9-9-9-9------| 
|-------------4-----4-----2---------7-------|-------------4-----4-----9-9-9-9-9-9-9-9------| 
|-4--4-----4--4-----4-----2---------5-------|-4--4-----4--4-----4-----7-7-7-7-7-7-7-7------| 
|-2--2-----2--2-----2-----0-----------------|-2--2-----2--2-----2--------------------------|  
| 
|-------------12----------------------------|-------------12--------12-14-16-12-14-16-12-16| 
|------------------15-14-12-----------------|------------------15-14-----------------------| 
|-11-13-14-11---11------------14-13-14---11-|-11-13-14-11---11-----------------------------| 
|-------------------------------------------|----------------------------------------------| 
|-------------------------------------------|----------------------------------------------| 
|-------------------------------------------|----------------------------------------------| 
| 
|-------------12----------------------------|-------------12--------12-14-16-12-14-16-12-16| 
|------------------15-14-12-----------------|------------------15-14-----------------------| 
|-11-13-14-11---11------------14-13-11------|-11-13-14-11---11-----------------------------| 
|----------------------------------------12-|----------------------------------------------| 
|-------------------------------------------|----------------------------------------------| 
|-------------------------------------------|----------------------------------------------| 
 
 
 
Riff A 
Gtr I                                 Gtr II enters here   
|------------------------------------|--------------------------------| 
|------------------------------------|--------------------------------| 
|111111121212-9-9-9111111141414-9-9-9111111121212-9-911---------------| 
|111111121212-9-9-9111111141414-9-9-9111111121212-9-911---------------| 
|-9-9-9101010-7-7-7-9-9-9121212-7-7-7|9-9-9101010-7-7-9-4-5-4-5-4-5-4-| 
|------------------------------------|------------------2-3-2-3-2-3-2-| 
                                                        . . . . . . .  
 
|---------------------------------------------------------------------| 
|---------------------------------------------------------------------| 
|111111121212-9-9-9111111141414-9-9-9111111121212-9-911---6---7---9---| 
|111111121212-9-9-9111111141414-9-9-9111111121212-9-911---6---7---9---| 
|-9-9-9101010-7-7-7-9-9-9121212-7-7-7|9-9-9101010-7-7-9---4---5---7---| 
|---------------------------------------------------------------------| 
 
 
Riff D 
|---------------------------------------------------------------------| 
|---------------------------------------------------------------------| 
|---------------------------------------------------------------------| 
|---------------------------------------------------------------------| 
|-4-4-4-5-5-5-2-2-2-4-4-4-7-7-7-2-2-2-4-4-4-5-5-5-2-2-4---4---3---2---| 
|-2-2-2-3-3-3-0-0-0-2-2-2-5-5-5-0-0-0-2-2-2-3-3-3-0-0-2-2---2---2---0-| 
  . . . . . . . . . . . . . . . . . . . . . . . . . . . . . . . . . .  
 
|---------------------------------------------------------------------| 
|---------------------------------------------------------------------| 
|---------------------------------------------------------6-6-7-7-8-8-| 
|---------------------------------------------------------6-6-7-7-8-8-| 
|-4-4-4-5-5-5-2-2-2-4-4-4-7-7-7-2-2-2-4-4-4-5-5-5-2-2-4-4-4-4-5-5-6-6-| 
|-2-2-2-3-3-3-0-0-0-2-2-2-5-5-5-0-0-0-2-2-2-3-3-3-0-0-2-2-------------| 
  . . . . . . . . . . . . . . . . . . . . . . . . . . . . 
 
Riff F 
|-----------------------------------------------------------------| 
|-----------------------------------------------------------------| 
|-----------------------------------------------------------------| 
|--------------------------------------------------5---7---10---9-| 
|---7---7---7---7---7---7---5---5---7---7---7---7-----------------| 
|-0---0---0---0---0---0---0---0---0---0---0---0---0---0---0---0---| 
|  .   .   .   .   .   .   .   .   .   .   .   .   .   .   .   . 
|-----------------------------------------------------------------| 
|-----------------------------------------------------------------| 
|-----------------------------------------------------------------| 
|---7\----------------------7---7-------------------5---7--10---9-| 
|---------------------------5---5---7---7---7---7-----------------| 
|---------------------------------0---0---0---0---0---0---0---0---| 
                                  .   .   .   .   .   .   .   . 
 
|-------------------------------------------------{7}-------------| 
|-----------------------------------------------------------------| 
|---------------------------7-------------------------------------| 
|-------------------------------7------------------------------7--| 
|---7---7---7---7---7---7-------8---7---7---7---7------7-910-9----| 
|-0---0---0---0---0---0---0---0---0---0---0---0------10---------10| 
| .   .   .   .   .   .   .   .   .   .   .   .    
|-----------------------------------------------------------------| 
|-----------------------------------------------------------------| 
|---------------------------7---7----------------------7----------| 
|---------------------------7---7-----------------------10-9-7----| 
|---7---7---7---7---7---7-----------7---7---7---7--7-10-------10-9| 
|-0---0---0---0---0---0---0---0---0---0---0---0-------------------| 
  .   .   .   .   .   .           .   .   .   .   
 
|-----------------------------------------------------------------| 
|-----------------------------------------------------------------| 
|----------------------------------------------------------12--11-| 
|-----------------------------------------------------------------| 
|--10--10--10--10--10--10---9---9--10--10--10--10---9--10---------| 
|-0---0---0---0---0---0---0---0---0---0---0---0---0---0---0---0---| 
| .   .   .   .   .   .   .   .   .   .   .   .   .   .   .   . 
|-----------------------------------------------------------------| 
|-----------------------------------------------------------------| 
|-----------------------------------------------------------------| 
|--------------------------------------------------5---7---10---9-| 
|---7---7---7---7---7---7---5---5---7---7---7---7-----------------| 
|-0---0---0---0---0---0---0---0---0---0---0---0---0---0---0---0---| 
  .   .   .   .   .   .   .   .   .   .   .   .   .   .   .   . 
 
|-----------------------------------------------------------------| 
|-----------------------------------------------------------------| 
|----------------------------------------------4-------5----------| 
|---------------------------------5------8-----5--555--7----4-----| 
|--10--10--10--10--10--10---9---9-7--777-9--999-------------5-----| 
|-0---0---0---0---0---0---0---0-----------------------------------| 
| .   .   .   .   .   .   .   .      ...    ...   ...    
|-----------------------------------------------------------------| 
|-----------------------------------------------------------------| 
|-----------------------------------------------7-------9---------| 
|---------------------------------9-----11------5--555--7---7-----| 
|---7---7---7---7---7---7---5---5-7--777-9--999-------------5-----| 
|-0---0---0---0---0---0---0---0-----------------------------------| 
  .   .   .   .   .   .   .   .      ...    ...    ... 
 
 
Riff G  
   p h p                      p h p  
|-14111411------------------1114111411------------------11-| 
|---------11--------------11----------11--------------11---| 
|-----------11----------11--------------11----------11-----| 
|-------------14------14------------------14------14-------| 
|---------------14--14----------------------14--14---------| 
|-----------------11--------------------------11-----------| 
| 
|----------------------------------------------------------| 
|----------------------------------------------------------| 
|-8--------------------------------------------------------| 
|-8--------------------------------------------------------| 
|-6--------------------------------------------------------| 
|----------------------------------------------------------| 
 
 
    p h p       p h p      p h p                       p h p 
|-14111411--1116131613--1318141814------------------1418141814------------------14-| 
|---------11----------14----------14--------------14----------14--------------14---| 
|-----------------------------------15----------15--------------15----------15-----| 
|-------------------------------------16------16------------------16------16-------| 
|---------------------------------------16--16----------------------16--16---------| 
|-----------------------------------------14--------------------------14-----------| 
| 
|----------------------------------------------------------------------------------| 
|----------------------------------------------------------------------------------| 
|-8----------------------11--------------------------------------------------------| 
|-8-----------6----------11--------------------------------------------------------| 
|-6-----------8-----------9--------------------------------------------------------| 
|----------------------------------------------------------------------------------| 
 
 
    p h p       p h p      p h p 
|-18141814--1420162016--1621182118--------18~-| 
|---------14----------16----------18----18----| 
|-------------------------------------18------| 
|-----------------------------------20--------| 
|---------------------------------------------| 
|---------------------------------------------| 
| 
|---------------------------------------------| 
|---------------------------------------------| 
|-11----------13----------15------------------| 
|-11----------13----------15------------------| 
|--9----------11----------13------------------| 
|---------------------------------------------| 
 
   p h p                      p h p  
|-12-912-9-------------------912-912-9-------------------9-| 
|----------9---------------9-----------9---------------9---| 
|------------9-----------9---------------9-----------9-----| 
|-------------10------10------------------10------10-------| 
|---------------10--10----------------------10--10---------| 
|------------------9---------------------------9-----------| 
| 
|----------------------------------------------------------| 
|----------------------------------------------------------| 
|-6----------------------------6---------------------------| 
|-6----------------------------6---------------------------| 
|-4------4-4-4-4-4-4-4-4-4-4-4-4-----4-4-4-4-4-4-4-4-4-4-4-| 
|----------------------------------------------------------| 
         . . . . . . . . . . .       . . . . . . . . . . . 
 
    p h p       p h p      p h p                       p h p 
|-12-912-9---914111411--1116121612------------------1216121612------------------12-| 
|----------9----------12----------12--------------12----------12--------------12---| 
|-----------------------------------13----------13--------------13----------13-----| 
|-------------------------------------14------14------------------14------14-------| 
|---------------------------------------14--14----------------------14--14---------| 
|-----------------------------------------12--------------------------12-----------| 
| 
|----------------------------------------------------------------------------------| 
|----------------------------------------------------------------------------------| 
|-6-----------------------9----------------------------9---------------------------| 
|-6-----------4-----------9----------------------------9---------------------------| 
|-4---4-4-4-4-6---6-6-6-6-7------7-7-7-7-7-7-7-7-7-7-7-7-----7-7-7-7-7-7-7-7-7-7-7-| 
|----------------------------------------------------------------------------------| 
      . . . .     . . . .        . . . . . . . . . . .       . . . . . . . . . . .  
 
    p h p       p h p      p h p 
|-16121612--1218141814--1419161916--------16~-| 
|---------12----------14----------16----16----| 
|-------------------------------------16------| 
|-----------------------------------18--------| 
|---------------------------------------------| 
|---------------------------------------------| 
| 
|---------------------------------------------| 
|---------------------------------------------| 
|-11----------13----------14------------14a.h | 
|-11----------13----------14------------------| 
|--9---9-9-9-911---111111112---12121212-------| 
|---------------------------------------------| 
       . . . .      . . . .     . . . . 
 
Riff H 
|------------------------------------------------| 
|-------------------------8-----8-----8-----8----| 
|-9-----9-----9-----9--7--5-555-5--7--5-555-5--7-| 
|-7-777-7-777-7-777-7--5-----------5-----------5-| 
|------------------------------------------------| 
|------------------------------------------------| 
|    ...   ...   ...         ...   ...   ... 
|------------------------------------------------| 
|----------------------8--5-----5--8--5-----5----| 
|-9-----9-----9-----9--5--5-555-5--5--5-555-5--7-| 
|-7-777-7-777-7-777-7--------------------------5-| 
|------------------------------------------------| 
|------------------------------------------------| 
    ...   ...   ...         ...   ...   ...  
 
 
|------------------------------------------------| 
|-------------------------8-----8-----8-----8----| 
|-9-----9-----9-----9--7--5-555-5--7--5-555-5--7-| 
|-7-777-7-777-7-777-7--5-----------5-----------5-| 
|------------------------------------------------| 
|------------------------------------------------| 
|    ...   ...   ...         ...   ...   ... 
|------------------------------------------------| 
|----------------------8--5-----5--8--5-----5----| 
|-9-----9-----9-----9--5--5-555-5--5--5-555-5--7-| 
|-7-777-7-777-7-777-7--------------------------5-| 
|------------------------------------------------| 
|------------------------------------------------| 
    ...   ...   ...         ...   ...   ... 
|------------------------------------------------| 
|-------------------------5-----5-----5-----5----| 
|-6-----6-----6-----6--4--2-222-2--4--2-222-2--4-| 
|-4-444-4-444-4-444-4--2-----------2-----------2-| 
|------------------------------------------------| 
|------------------------------------------------| 
|    ...   ...   ...         ...   ...   ... 
|------------------------------------------------| 
|----------------------5--2-----2--5--2-----2----| 
|-6-----6-----6-----6--2--2-222-2--2--2-222-2--4-| 
|-4-444-4-444-4-444-4--------------------------2-| 
|------------------------------------------------| 
|------------------------------------------------| 
     ...   ...   ...         ...   ...   ... 
 
                           double time 
|------------------------|-----------------------------------| 
|------------------------|-----------------------------------| 
|-6-----6-----6-----6--4-|-9-7-5---7-5-----5-----------------| 
|-4-444-4-444-4-444-4--2-|-------9-----9-7---9-7-5-3a.h.-----| 
|------------------------|-----------------------------------| 
|------------------------|-----------------------------------| 
|   ...   ...   ...        . . . . . . . . . . . .  
|------------------------|10-9-7---9-7-----7-------11a.h.----| 
|------------------------|------10----10-9--10-9-7-----------| 
|-6-----6-----6-----6--4-|-----------------------------------| 
|-4-444-4-444-4-444-4--2-|-----------------------------------| 
|------------------------|-----------------------------------| 
|------------------------|-----------------------------------| 
     ...   ...   ...             .     .  . . . . .          
 
Solo???? 
 
|------------------------------------------------------------------------------------------------| 
|------------------------------------------------------------------------------------------------| 
|------------------------------------------------------------------------------------------------| 
|------------------------------------------------------------------------------------------------| 
|------------------------------------------------------------------------------------------------| 
|------------------------------------------------------------------------------------------------| 
 
|------------------------------------------------------------------------------------------------| 
|------------------------------------------------------------------------------------------------| 
|------------------------------------------------------------------------------------------------| 
|------------------------------------------------------------------------------------------------| 
|------------------------------------------------------------------------------------------------| 
|------------------------------------------------------------------------------------------------| 
 
 
                                                              ~~          ~~          ~~ 
|------------------------------------------------------------------------------------------------| 
|-----------------------------------------------------------17a.h.-------17a.h.--- 17a.h.--------| 
|-/14---------12-------14-------16~-------14-------16~-------------------------------------------| 
|------------------------------------------------------------------------------------------------| 
|------------------------------------------------------------------------------------------------| 
|------------------------------------------------------------------------------------------------| 
 
 
|--1919191515151517171717--------15151515------------------------------17----1719--171912117192122-| 
|------------------------19191919--------171717171919191915151515171921--1921----21----------------| 
|--------------------------------------------------------------------------------------------------| 
|--------------------------------------------------------------------------------------------------| 
|--------------------------------------------------------------------------------------------------| 
|--------------------------------------------------------------------------------------------------| 
 
  
|-24b~~------------------| 
|------------------------| 
|------------------------| 
|------------------------| 
|------------------------| 
|------------------------| 
 
 
Riff C 
|-------------------------------------------------------------------| 
|-------------------------------------------------------------------| 
|---------12---9---7-7-7-7-5-5-5-5---------12---9-------------------| 
|---------12---9---7-7-7-7-5-5-5-5---------12---9---8-9-----7-8-7---| 
|---------10---7---5-5-5-5-3-3-3-3---------10---7-------7-10------7-| 
|-0-0---0--------------------------0-0-0-0--------------------------| 
| . .   .                          . . . . 
|-------------------------------------------------------------------| 
|-------------------------------------------------------------------| 
|---------12---9---------------------------12---9-------------------| 
|---------12---9-------4-7-----2-5---------12---9-------7-----------| 
|-7-7---7-10---7---7-5-----5-3-------------10---7---7-5---5-6-7-6-5-| 
|----------------------------------0-0-0-0--------------------------| 
  . .   .                          . . . .          . .     . . . . 
 
 
 
Riff D 
|-------------------------------------------|-------------------------------------------| 
|-------------------------------------------|-------------------------------------------| 
|-----------------------------------7-------|-----------------------------------7-------| 
|-------------4-----4-----2---------7-------|-------------4-----4-----2---------7-------| 
|-4--4-----4--4-----4-----2---------5-------|-4--4-----4--4-----4-----2---------5-------| 
|-2--2-----2--2-----2-----0-----------------|-2--2-----2--2-----2-----0-----------------|  
| 
|-------------12----------------------------|-------------12----------------------------| 
|------------------15-14-12-----------------|------------------15-14-12-----------------| 
|-11-13-14-11---11------------14-13-14---11-|-11-13-14-11---11------------14-13-14~-----| 
|-------------------------------------------|-------------------------------------------| 
|-------------------------------------------|-------------------------------------------| 
|-------------------------------------------|-------------------------------------------| 
 
 
|-------------------------------------------|-------------------------------------------| 
|-------------------------------------------|-------------------------------------------| 
|-----------------------------------7-------|-------------------------9-9-9-9-9-9-9-9---| 
|-------------4-----4-----2---------7-------|-------------4-----4-----9-9-9-9-9-9-9-9---| 
|-4--4-----4--4-----4-----2---------5-------|-4--4-----4--4-----4-----7-7-7-7-7-7-7-7---| 
|-2--2-----2--2-----2-----0-----------------|-2--2-----2--2-----2-----------------------|  
| 
|-------------12----------------------------|-------------12--------12-14-16-12-14-16-12| 
|------------------15-14-12-----------------|------------------15-14--------------------| 
|-11-13-14-11---11------------14-13-14---11-|-11-13-14-11---11--------------------------| 
|-------------------------------------------|-------------------------------------------| 
|-------------------------------------------|-------------------------------------------| 
|-------------------------------------------|-------------------------------------------| 
 
 
|-------------------------------------------|-------------------------------------------| 
|-------------------------------------------|-------------------------------------------| 
|-----------------------------------7-------|-----------------------------------7-------| 
|-------------4-----4-----2---------7-------|-------------4-----4-----2---------7-------| 
|-4--4-----4--4-----4-----2---------5-------|-4--4-----4--4-----4-----2---------5-------| 
|-2--2-----2--2-----2-----0-----------------|-2--2-----2--2-----2-----0-----------------|  
| 
|-------------12----------------------------|-------------12----------------------------| 
|------------------15-14-12-----------------|------------------15-14-12a.h.-------------| 
|-11-13-14-11---11------------14-13-14---11-|-11-13-14-11---11------------14-13-14a.h.--| 
|-------------------------------------------|-------------------------------------------| 
|-------------------------------------------|-------------------------------------------| 
|-------------------------------------------|-------------------------------------------| 
| 
|-------------12----------------------------|-------------12----------------------------| 
|------------------15-14-12-----------------|------------------15-14-12a.h.-------------| 
|-11-13-14-11---11------------14-13-11------|-11-13-14-11---11------------14-13-14a.h.--| 
|----------------------------------------12-|-------------------------------------------| 
|-------------------------------------------|-------------------------------------------| 
|-------------------------------------------|-------------------------------------------| 
 
 
 
|-------------------------------------------|----------------------------------------------| 
|-------------------------------------------|----------------------------------------------| 
|-----------------------------------7-------|-------------------------9-9-9-9-9-9-9-9------| 
|-------------4-----4-----2---------7-------|-------------4-----4-----9-9-9-9-9-9-9-9------| 
|-4--4-----4--4-----4-----2---------5-------|-4--4-----4--4-----4-----7-7-7-7-7-7-7-7------| 
|-2--2-----2--2-----2-----0-----------------|-2--2-----2--2-----2--------------------------|  
| 
|-------------12----------------------------|-------------12--------12-14-16-12-14-16-12-16| 
|------------------15-14-12a.h.-------------|------------------15-14-----------------------| 
|-11-13-14-11---11------------14-13-14a.h11-|-11-13-14-11---11-----------------------------| 
|-------------------------------------------|----------------------------------------------| 
|-------------------------------------------|----------------------------------------------| 
|-------------------------------------------|----------------------------------------------| 
| 
|-------------12----------------------------|-------------12--------12-14-16-12-14-16-12-16| 
|------------------15-14-12a.h.-------------|------------------15-14-----------------------| 
|-11-13-14-11---11------------14-13-11------|-11-13-14-11---11-----------------------------| 
|----------------------------------------12-|----------------------------------------------| 
|-------------------------------------------|----------------------------------------------| 
|-------------------------------------------|----------------------------------------------| 
 
Riff I (Keyboard Part) 
 
                   /14\  /14                                hp 
|-------------------------------------------|-------------------------------------------| 
|-------------------------------------------|-------------------------------------------| 
|-14---------------(14)-(14)------------1414|-13----------131413------------------------| 
|-------------------------------------------|-------------------14/16-------------------| 
|-------------------------------------------|-------------------------------------------| 
|-------------------------------------------|-------------------------------------------| 
| 
|-------------------------------------------|-------------------------------------------| 
|-------------------------------------------|-------------------------------------------| 
|-------------12----------------------------|-------------12----------------------------| 
|-------------12---------6----------4-------|-------------12--------6---------4---------| 
|--9--9--9--9--9---------7----------5-------|--9--9--9--9--9--------7---------5---------| 
|-------------------------------------------|-------------------------------------------| 
 
 
                    hp 
|-14---------------141714-17-14~------------|-21-24-211917----------------------------------------------| 
|-------------------------------------------|-------------211917----------------------------------171921| 
|-------------------------------------------|-------------------191816--1816----16----------161819------| 
|-------------------------------------------|-------------------------19----1918--1918161819------------| 
|-------------------------------------------|-----------------------------------------------------------| 
|-------------------------------------------|-----------------------------------------------------------| 
| 
|-------------------------------------------|-------------------------------------------| 
|-------------------------------------------|-------------------------------------------| 
|-------------12----------------------------|-------------12----------------------------| 
|-------------12---------6----------4-------|-------------12--------6----6----4----4----| 
|--9--9--9--9--9---------7----------5-------|--9--9--9--9--9--------7----7----5----5----| 
|-------------------------------------------|-------------------------------------------| 
 
 
                   /17\                   h                                        hp 
|-17---------------(17)---16------------2122|-21-------------22-21-19-------------------| 
|---------------------------------19--------|--------------------------------22---------| 
|-------------------------------------------|------------------------------------131413-| 
|-------------------------------------------|-------------------------------------------| 
|-------------------------------------------|-------------------------------------------| 
|-------------------------------------------|-------------------------------------------| 
| 
|-------------------------------------------|-------------------------------------------| 
|-------------------------------------------|-------------------------------------------| 
|-------------12----------------------------|-------------12----------------------------| 
|-------------12---------------6---------4--|-------------12--------------6---------4---| 
|--9--9--9--9--9---------7--7--7---5--5--5--|--9--9--9--9--9--------7--7--7---5--5--5---| 
|-------------------------------------------|-------------------------------------------| 
 
                                             (listen for time) 
|-------------------------------------------|-24--22--21--19----------------------------------| 
|-------------------------------------------|---------------222119----------------------------| 
|------------------13--13--------------13-14|---------------------211918------211918----------| 
|/16-----------------16--16---------14------|---------------------------211918------211918----| 
|-------------------------------------------|---------------------------------------------2119| 
|-------------------------------------------|-------------------------------------------------| 
| 
|-------------------------------------------|-------------------------------------------------| 
|-------------------------------------------|-------------------------------------------------| 
|-------------12----------------------------|-------------------------------------------------| 
|-------------12---------------6---------4--|------------------4------2-----2-----------------| 
|--9--9--9--9--9---------7--7--7---5--5--5--|------------------4------2-----2-----------------| 
|-------------------------------------------|--2---2---2---2---2------0-----0-----------------| 
 
                           feetback 
|------------------------|-------------------------------------------| 
|------------------------|-------------------------------------------| 
|------------------------|-------------------------------------------| 
|---19-18-16-------------|-------------------------------------------| 
|-17---------19-17-16----|-------------------------------------------| 
|---------------------19-|-12fb-(13)---------------------------------| 
| 
|------------------------|-------------------------------------------| 
|------------------------|-------------------------------------------| 
|--7---------------------|-------------------------------------------| 
|--7---------------------|--4----------------------------------------| 
|--5---------------------|--4----------------------------------------| 
|------------------------|--2----------------------------------------| 
 
End 
 
If you find any Mistakes mail me:  
 
[email protected] 
 

		  

auto scroll beats size up size down change color hide chords drawings
tab show chords e-chords YouTube Clip e-chords hide all tabs e-chords go to top tab

share