Children Of Bodom

Iron, Stell, Metal

Children Of Bodom

tabs

by  ALEDAMON

save to print version add songbook text version e-mail correct tuner
chordsukulelecavacokeyboardtabbassdrumsharmonicaflute Guitar Pro
close

there isn't a video lesson for this song

chords

Iron, Stell, Metal

	  		|------------------------------------------------------------------| 
|------------------------------------------------------------------| 
|------------------------------------------------------------------| 
|------------------------------------------------------------------| 
|-2-2-2-2-2-2-2-2-2-2-2-2-2-2-2-2-2-2-2-2-2-2-2-2-2-2-2-2-2-2-2-2--| 
|-0-0-0-0-0-0-0-0-0-0-0-0-0-0-0-0-0-0-0-0-0-0-0-0-0-0-0-0-0-0-0-0--| 

|------------------------------------------------------------------| 
|------------------------------------------------------------------| 
|------------------------------------------------------------------| 
|-----9x9x9x9x99---------------------------------------------------| 
|-10--7x7x7x7x77---------------------------------------------------| 
|-8----------------------------------------------------------------| 

|------------------------------------------------------------------| 
|------------------------------------------------------------------| 
|------------------------------------------------------------------| 
|------------------------------------------------------------------| 
|-2-2-2-2-2-2-2-2-2-2-2-2-2-2-2-2-2-2-2-2-2-2-2-2-2-2-2-2-2-2-2-2--| 
|-0-0-0-0-0-0-0-0-0-0-0-0-0-0-0-0-0-0-0-0-0-0-0-0-0-0-0-0-0-0-0-0--|  

|------------------------------------------------------------------| 
|------------------------------------------------------------------| 
|------------------------------------------------------------------| 
|------------------------------------------------------------------| 
|-10-9-7-----------------------------------------------------------| 
|-8--7-5-----------------------------------------------------------| 

|------------------------------------------------------------------| 
|------------------------------------------------------------------| 
|------------------------------------------------------------------| 
|------------------5-----------------------------------------------| 
|-7-777-777-77-5-7---8---------------------------------------------| x3 
|------------------------------------------------------------------| 

|------------------------------------------------------------------| 
|------------------------------------------------------------------| 
|------------------------------------------------------------------| 
|----------10-7----------------------------------------------------| 
|-7-777-77-8--5----------------------------------------------------| 
|------------------------------------------------------------------| 

|------------------------------------------------------------------| 
|------------------------------------------------------------------| 
|------------------------------------------------------------------| 
|------------------------------------------------------------------| 
|--------------------8---------------------------------------------| x3 
|-8-888-888-888-8-10---10------------------------------------------| 

|------------------------------------------------------------------| 
|------------------------------------------------------------------| 
|------------------------------------------------------------------| 
|----------7-10-9--------------------------------------------------| 
|----------5-8--7--------------------------------------------------| 
|-8-888-88---------------------------------------------------------| 

|------------------------------------------------------------------| 
|------------------------------------------------------------------| 
|------------------------------------------------------------------| 
|-10-7--9-----10-9-------------------------------------------------| 
|-8--5--7--10-8--7-------------------------------------------------|x2 
|----------8-------------------------------------------------------| 

|------------------------------------------------------------------| 
|------------------------------------------------------------------| 
|------------------5-----------------------------------------------| 
|-7-777-777-77-5-7---8---------------------------------------------| x3 
|------------------------------------------------------------------| 

|------------------------------------------------------------------| 
|------------------------------------------------------------------| 
|------------------------------------------------------------------| 
|----------10-7----------------------------------------------------| 
|-7-777-77-8--5----------------------------------------------------| 
|------------------------------------------------------------------| 

|------------------------------------------------------------------| 
|------------------------------------------------------------------| 
|------------------------------------------------------------------| 
|------7/10--------------------------------------------------------| 
|-10-9-5/8---------------------------------------------------------| 
|-8--7-------------------------------------------------------------| 

|------------------------------------------------------------------| 
|------------------------------------------------------------------| 
|------------------------------------------------------------------| 
|-------9/10------7-8------9/10------------------------------------| 
|-------7/8-------7/8------7/8----7-8-7--7-------------------------|x2 
|-0-0-0-----0-0-0-----0-0-0------------10--10-8-7------------------|     

|------------------------------------------------------------------| 
|------------------------------------------------------------------| 
|------------------------------------------------------------------| 
|-------7----------------------------------------------------------| 
|-10-9--5----------------------------------------------------------| 
|-8--7-------------------------------------------------------------| 

|------------------------------------------------------------------| 
|------------------------------------------------------------------| 
|------------------------------------------------------------------| 
|-------9/10------7-8------9/10------------------------------------| 
|-------7/8-------7/8------7/8----7-8-7--7-------------------------|x2 
|-0-0-0-----0-0-0-----0-0-0------------10--10-8-7------------------| 

|------------------------------------------------------------------| 
|------------------------------------------------------------------| 
|------------------------------------------------------------------| 
|------------------5-----------------------------------------------| 
|-7-777-777-77-5-7---8---------------------------------------------| x3 
|------------------------------------------------------------------| 

|------------------------------------------------------------------| 
|------------------------------------------------------------------| 
|------------------------------------------------------------------| 
|----------10-7----------------------------------------------------| 
|-7-777-77-8--5----------------------------------------------------| 
|------------------------------------------------------------------| 

|------------------------------------------------------------------| 
|------------------------------------------------------------------| 
|------------------------------------------------------------------| 
|------------------------------------------------------------------| 
|--------------------8---------------------------------------------| x3 
|-8-888-888-888-8-10---10------------------------------------------| 

|------------------------------------------------------------------| 
|------------------------------------------------------------------| 
|------------------------------------------------------------------| 
|----------7-10-9--------------------------------------------------| 
|----------5-8--7--------------------------------------------------| 
|-8-888-88---------------------------------------------------------| 

|------------------------------------------------------------------| 
|------------------------------------------------------------------| 
|------------------------------------------------------------------| 
|-10-7--9-----10-9-------------------------------------------------| 
|-8--5--7--10-8--7-------------------------------------------------|x2 
|----------8-------------------------------------------------------| 

|------------------------------------------------------------------| 
|------------------------------------------------------------------| 
|------------------5-----------------------------------------------| 
|-7-777-777-77-5-7---8---------------------------------------------| x3 
|------------------------------------------------------------------| 

|------------------------------------------------------------------| 
|------------------------------------------------------------------| 
|------------------------------------------------------------------| 
|----------10-7----------------------------------------------------| 
|-7-777-77-8--5----------------------------------------------------| 
|------------------------------------------------------------------| 

|------------------------------------------------------------------| 
|------------------------------------------------------------------| 
|------------------------------------------------------------------| 
|------7/10--------------------------------------------------------| 
|-10-9-5/8---------------------------------------------------------| 
|-8--7-------------------------------------------------------------| 

|------------------------------------------------------------------| 
|------------------------------------------------------------------| 
|------------------------------------------------------------------| 
|-------9/10------7-8------9/10------------------------------------| 
|-------7/8-------7/8------7/8----7-8-7--7-------------------------|x2 
|-0-0-0-----0-0-0-----0-0-0------------10--10-8-7------------------| 

|------------------------------------------------------------------| 
|------------------------------------------------------------------| 
|------------------------------------------------------------------| 
|-------7----------------------------------------------------------| 
|-10-9--5----------------------------------------------------------| 
|-8--7-------------------------------------------------------------| 

|------------------------------------------------------------------| 
|------------------------------------------------------------------| 
|------------------------------------------------------------------| 
|-------9/10------7-8------9/10------------------------------------| 
|-------7/8-------7/8------7/8----7-8-7--7-------------------------|x2 
|-0-0-0-----0-0-0-----0-0-0------------10--10-8-7------------------| 

|------------------------------------------------------------------| 
|------------------------------------------------------------------| 
|------------------------------------------------------------------| 
|-------------7----------------------------------------------------| 
|7-7-9-10-9-7---10-9-10-7---7-7-9-10-9-7---------7-7---------------| x4 
|------------------------10--------------10-7-10-------------------| 
		  

auto scroll beats size up size down change color hide chords drawings
tab show chords e-chords YouTube Clip e-chords hide all tabs e-chords go to top tab

share