Children Of Bodom

Everytime I die

Children Of Bodom

tabs Expert expert

save to print version add songbook text version e-mail correct tuner
chordsukulelecavacokeyboardtabbassdrumsharmonicaflute Guitar Pro
close

there isn't a video lesson for this song

chords

Everytime I die

	  		..  - palm mute          /  - slide up to
   - slide down to      ~  - vibrato
 h  - hammer on          b  - bend
 p  - pull off            Suffixes for bend
N.H. - Natural Harmonic   ph - pinch harmonic         
                           f - full bend       h - half bend
*  - see comment           r - release         t - tap bend
X  - percussion mute       ~ - vibrato bend    al - alavanca
@  - slight palm mute     () - ghost note, sustained note

D tuning (D,G,C,F,A,D)

Intro:
guitar 1:                                                
|---10--|---10--|---15b--|---15pb-|---10--|---7---|--15---14---|---18b---|
|---12--|---12--|--------|--------|---12--|---7---|--15---15---|---------|
|-------|-------|--------|--------|-------|-------|------------|---------|
|-------|-------|--------|--------|-------|-------|------------|---------|
|-------|-------|--------|--------|-------|-------|------------|---------|
|-------|-------|--------|--------|-------|-------|------------|---------|

Riff 1:
guitar 1 & 2
|------------------------------------------|
|---------------------------------6-6-6-6--|
|---------------------------------7-7-7-7--|
|------------------------------------------|
|-x-xxxxxxxx-xx-x-x-xxxxxxxx-xx-x----------|
|-0-00000000-00-0-0-00000000-00-0----------|
  . ........ .. . . ........ .. .

guitar 1
|-------------------------------------------------------------|
|-------------------------------------------------------------|
|----------------------------9---9-11-12-11-9----9------------|
|------------------------------9--------------12--------------|
|-x-xxxxxxxx-xx-x-x-xxxxxxxx----------------------------------|
|-0-00000000-00-0-0-00000000----------------------------------|
| . ........ .. . . ........                                  |

guitar 1 & 2
|-------------------------------------------------------------|
|---------------------------------6-6-6-6---------------------|
|---------------------------------7-7-7-7---------------------|
|-------------------------------------------------------------|
|-x-xxxxxxxx-xx-x-x-xxxxxxxx-xx-x-----------------------------|
|-0-00000000-00-0-0-00000000-00-0-----------------------------|
  . ........ .. . . ........ .. .

guitar 1 & 2
|---------------------|
|---------------------|
|---------------------|
|---------------------|
|-x-xxxxxxxx-xx-x-x---|
|-0-00000000-00-0-0---|
  . ........ .. . .

guitar 1
|-----121712------121512------121712------141714--------------|
|---13------13--13------13--13------13--15------15------------|
|-14----------12----------14----------14----------------------|
|-------------------------------------------------------------|
|-------------------------------------------------------------|
|-------------------------------------------------------------|

Riff 2:
guitar 1
|-------------------------------------------------------------|
|*-----------------------------------------------------------*|
|--------------------------------------------5-------7--------|
|---9---------------------------7--5--4--x-x-5---x-x-7--------|
|*-----10--9--7--9--5--7--3--2-----------3-3-3---5-5-5-------*|
|-------------------------------------------------------------|
|                                  ..  ..                     |

guitar 1                                      1.          |              2.
|-12---------------------------------|--------------------|---------------------------------------17~--|
|----12-12-12------------------------|--------------------|--------------------------------------------|
|-------------14-11-12------11-9-----|-------12--------14-|----------------------------16-17-19--------|
|----------------------14-9------12--|-10-10-10--12-12-12-|-------------------16-17-19-----------------|
|------------------------------------|--------------------|----------15-17-19--------------------------|
|------------------------------------|--------------------|-15-17-19-----------------------------------|
|                                              ..  ..         

guitar 1 & 2
|---------------------------------|-----------------------------|
|---------------------------------|-----------------------------|
|---------------------------------|-----------------------------|
|--Keyboard-----------------------|--4--4--4--4---x-x-5---x-x-7-|
|---------------------------------|--2--2--2--2---3-3-3---5-5-5-|
|---------------------------------|-----------------------------|
                                     .  .  .      . .     . .

Verse:
guitar 1 & 2
|-------------------------------------------------------------|
|*------------------------------------------------------------|
|---------------------------------------------------5---------|
|-2---------2----------------2---------2------------5---------|
|*2---x-x---2---x---xxxxxx---2---x-x---2---x---xx---3---------|
|-0---0-0---0---0---000000---0---0-0---0---0---00-------------|
      . .       .   ......       . .       .   ..
|-------------------------------------------------------------|
|------------------------------------------------------------*|
|------------------------7--------------------5-------7-------|
|-2---------2------------7---4--4--4--4---x-x-5---x-x-7-------|
|-2---x-x---2---x---xx---5---2--2--2--2---3-3-3---5-5-5------*|
|-0---0-0---0---0---00----------------------------------------|
      . .       .   ..       .  .  .      . .     . .

|-------------------------------------------------------------|
|-------------------------------------------------------------|
|---------------------------------------------------5---------|
|-2---------2----------------2---------2------------5---------|
|-2---x-x---2---x---xxxxxx---2---x-x---2---x---xx---3---------|
|-0---0-0---0---0---000000---0---0-0---0---0---00-------------|
      . .       .   ......       . .       .   ..

|-------------------------------------------------------------|
|-------------------------------------------------------------|
|------------------------7----------------5------7------------|
|-2---------2------------7---4--4--4--4---5------7------------|
|-2---x-x---2---x---xx---5---2--2--2--2---3------5------------|
|-0---0-0---0---0---00----------------------------------------|
      . .       .   ..       .  .  .      

guitar 1                                          
|-------------------------------------------------------------|
|*-----------------------------------------------------------*|
|--9---------------------------7--9--4------5-------5---------|
|-----10--9--7--9--5--7--3--2-----------x-x-5---x-x-7-----3x--|
|*--------------------------------------3-3-3---5-5-5--------*|
|-------------------------------------------------------------|
|                                      ....      ....         |

guitar 1 + keyboard                                               al-
|-----121712------121512------121712------1417114----19br19p17h19--19---|
|---13------13--13------13--13------13--15--------15--------------------|
|-14----------12----------14----------14--------------------------------|
|-----------------------------------------------------------------------|
|-----------------------------------------------------------------------|
|-----------------------------------------------------------------------|

Chorus:
guitar 1
|---------------------------------------------------------------|
|*10-10---------10-10-12-12---------12-12----------------------*|
|------9-9-12-12-----------9-9-12-12------------9-7-9---9-0-7---|
|-------------------------------------------7-7-7-5-7---7-9-5---|
|*-------------------------------------------------------------*|
|---------------------------------------------------------------|
|                     . .             .   ..                    |

guitar 1
|--------------------------------------------------------------------15----------------------|
|-10-10---------10-10-12---------12-12-13-13-----10-10-13-17-15-17-18--18-17-15-17~~---------|
|------9-9-12-12--------9-9-12-12-----------10-10--------------------------------------------|
|--------------------------------------------------------------------------------------------|
|--------------------------------------------------------------------------------------------|
|--------------------------------------------------------------------------------------------|

guitar 1 & 2
|-------------------------------------------------------------|
|---------------------------------6-6-6-6---------------------|
|---------------------------------7-7-7-7---------------------|
|-------------------------------------------------------------|
|-x-xxxxxxxx-x--x-x-xxxxxxxx-xx-x-----------------------------|
|-0-00000000-00-0-0-00000000-00-0-----------------------------|
  . ........ .. . . ........ .. .                   w/whammy 2xup
|----------------17b-17br-------------------------------------|
|-------------------------------------------------------------|
|-------------------------------------------------------------|
|-------------------------------------------------------------|
|---xxxxxxx---------------------------------------------------|
|---xxxxxxx---------------------------------------------------|
    .......  

PLAY VERSE 1 TIME

guitar 1
|--12----12-0-12-15-0-14-17-0------------12-11----------------|
|-----12----------------------12-17-0-12---------------------*|
|-------------------------------------------------------------|
|---------------------------------------------------------3x--|
|------------------------------------------------------------*|
|-------------------------------------------------------------|

guitar 1 on third time + keyboard
|--20-17----------------------------17-20br--17-----------------|
|--------17----------------------17-------------17--------------|
|-----------17----------------17-------------------17-----------|
|--------------19----------19-------------------------19--------|
|-----------------19----19-------------------------------19-15--|
|--------------------19-----------------------------------------|


guitar 1
|--------------------------------|---------------------------------|------------------------------------|
|*-------------------------------|---------------------------------|-----------------------------------*|
|--------------------------7-7-7-|---------------------------------|------------------------------------|
|-9-9-5-5-9-9-5-5---7-7-7--------|-5-5-5-5-5-5-5-5---7-7-7---5-5-5-|------------------------------------|
|*7-7-7-7-7-7-7-7----------------|---------------------------------|-2----2-3-5--3--2--5/9--7--5--5--4-*|
|--------------------------------|---------------------------------|------------------------------------|

SOLO:  guitar 1 Listen rhytm from CD
|------12---19-15/17-------|-----------------17-15-----|
|--------------------17/13-|--15/17----------------15--|
|-9/14---------------------|--------1412--------------|
|--------------------------|--------------12-----------|
|--------------------------|---------------------------|
|--------------------------|---------------------------|

guitar 1
|-----------------------------------------------|
|-16-17-20-16-17-22-16-17-20-16-17-22-16-17-20--|
|-----------------------------------------------|
|-----------------------------------------------|
|-----------------------------------------------|
|-----------------------------------------------|

guitar 1
|-17-20----20-19-17----17----17-19-201917---------20br--------|
|-------18----------20----20-------------201917---------------|
|-------------------------------------------------------------|
|-------------------------------------------------------------|
|-------------------------------------------------------------|
|-------------------------------------------------------------|

guitar 1
|-17----------------------17-19-20-19br--17-------------------|
|----20-17-------------18-------------------------------------|
|----------19-17-----17---------------------------------------|
|------------------19-----------------------------------------|
|----------------20-------------------------------------------|
|-------------------------------------------------------------|


guitar 1
|-19-17-20p17p15----------20p17p15----------------------------|
|----------------17p15-------------17p15----------------------|
|----------------------17----------------17-------------------|
|-------------------------------------------------------------|
|-------------------------------------------------------------|
|-------------------------------------------------------------|


guitar 1
|-20p17p15----------20p17p15----------------------------------|
|----------17p15-------------17p15----------------------------|
|----------------17----------------17-------------------------|
|-------------------------------------------------------------|
|-------------------------------------------------------------|
|-------------------------------------------------------------|

guitar 1
|-20p17p15-----------15p12p10---------------------------------|
|----------17p15--------------13p10---------------------------|
|----------------17----------------10-------------------------|
|-------------------------------------------------------------|
|-------------------------------------------------------------|
|-------------------------------------------------------------|

guitar 1
|--15p12p10----------15p12p10---------------------------------|
|----------13p10-------------13p10p8--------------------------|
|---------------10-------------------14p12p9------------------|
|--------------------------------------------12p10p9---7~~----|
|-------------------------------------------------------------|
|-------------------------------------------------------------|
end guitar solo

Keyboard solo, guitar 1&2 plays solo riff

|--------------|--------|---------|---------|--------------|----------|----------|
|--------------|--------|---------|---------|--------------|----------|----------|
|--2--------5--|--------|---------|---------|--2--------5--|----------|----------|
|--2----5---5--|-3---2--|--5---2--|--3---5--|--2----5---5--|--3----2--|--5----2--|
|--0----5---3--|-3---2--|--5---2--|--3---5--|--0----5---3--|--3----2--|--5----2--|
|-------3------|-1---0--|--3---0--|--1---3--|-------3------|--1----0--|--3----0--|
                                             
|------------------------|-------------------------|
|------------------------|-------------------------|
|------------------------|-------------------------|
|--3------5-----------5--|-------5--5-----3-----5--|
|--3------5-5-5-5-5-5-5--|-------5--5-----3-----5--|
|--1------3-5-3-3-3-3-3--|-----3-3--3---1-1---3-3--|
                                          
guitar 1                                                     
|--------------------------------------------------------------------------------|
|--------------13-15-17-18---------------17-18-20-----------------18-20-22-22~~--|
|-----12-14-16-------------------16-17-19----------------17-19-21----------------|
|--15----------------------17-19-------------------19-21-------------------------|
|--------------------------------------------------------------------------------|
|--------------------------------------------------------------------------------|

|---------------------------------------|-----------------|----------------|
|---------------------------------------|-----------------|----------------|
|---------play chorus 1 time -----------|-----------------|----------------|
|---------------------------------------|-----------------|----3-----5--7--|
|---------------------------------------|---------x-7--7--|--x-3---x-5--7--|
|---------------------------------------|---------0-0--0--|--1-1---3-3--5--|



_______________________________________________________
Contribuição: jefferson hita([email protected])
		  

auto scroll beats size up size down change color hide chords drawings
tab show chords e-chords YouTube Clip e-chords hide all tabs e-chords go to top tab

share