Chico Buarque

Ciranda da Bailarina Tab

Chico Buarque

Difficulty: ExpertExpert

by ChrisFHansen

tuner correct add songbook print version text version save to e-mail
chordsukuleleukulelecavacokeyboardtabbassdrumsharmonicsflute Guitar Pro
close

there isn't a video lesson for this song

request
chords

Ciranda da Bailarina

(Chico Buarque e Edu Lobo)

  		


e|-------------------------------------------------------------------|  
B|-------------------------------------------------------------------|  
G|---4---4---9---7---4---4---9---7---4---4---9---7---4---4---2---2---|  
D|-----0---0---0---0---0---0---0---0---0---0---0---0---0---0---0---0-|  
A|-------------------------------------------------------------------|  
E|---3-------8---6---3-------8---6---3-------8---6---3-------2-------|  

e|------------------------------------------------------3-2-0-|  
B|------------------------------------------------------------|  
G|---4---4---9---7---4---4---9---7---4---4---2---2---0--------|  
D|-----0---0---0---0---0---0---0---0---0---0---0---0---0-0-0--|  
A|------------------------------------------------------------|  
E|---3-------8---6---3-------8---6---3-------2-------0--------|  

e|-----0-------0-------0-------0-------0-----------------------------|  
B|-------------------------------------------------------------------|  
G|-5-------4-------5-------4-------5-------4---0---2---4---5---7-----|  
D|---0---0---0---0---0---0---0---0---0---0---0---0---0---0---0---0---|  
A|-------------------------------------------------------------------|  
E|-5-------4-------5-------4-------5-------4---0---2---4---5---7-----|  


Por Christopher Hansen 

	  

Search Paypal
auto scroll beats size up size down change color hide chords drawings
tab show chords e-chords YouTube Clip e-chords hide all tabs e-chords go to top tab

share with facebook