Chase Atlantic

Vibes

Chase Atlantic

tabs

by  GUSTSILVA

save to print version add songbook text version e-mail correct tuner
chordsukulelecavacokeyboardtabbassdrumsharmonicaflute Guitar Pro
close

there isn't a video lesson for this song

chords

Vibes

	  		Chase Atlantic - Vibes 
E||--------5--7--5--|--------5--7--5-----5--|--------5--7--5--|--------5--7--5-----5--|-- 
B||-----5-----------|-----5-----------------|-----5-----------|-----5-----------------|-- 
G||--6--------------|-----------------------|-----------------|-----------------------|-- 
D||-----------------|--6--------------6-----|--4--------------|--4--------------4-----|-- 
A||-----------------|-----------------------|-----------------|-----------------------|-- 
E||-----------------|-----------------------|-----------------|-----------------------|-- 

E|--------5--7--5--|--------5--7--5-----5--|--------5--7--5--|--------5--7--4--------||-- 
B|-----5-----------|-----5-----------------|-----5-----------|-----5-----------------||-- 
G|--6--------------|-----------------------|-----------------|-----------------------||-- 
D|-----------------|--6--------------6-----|--4--------------|--6--------------------||-- 
A|-----------------|-----------------------|-----------------|-----------------------||-- 
E|-----------------|-----------------------|-----------------|-----------------------||-- 
*repeats through the verse 
		  

See also:

tabs Ira! - Poço de Sensibilidade (Solo - Acustico Mtv) tabs Deep Purple - Smoke On The Water tabs Deep Purple - Smoke on the water (intro) tabs Ira! - Eu Quero Sempre Mais (Com Pitty, intro) tabs Deep Purple - Smoke on the Water (ver. 2) tabs Deep Purple - Knocking At Your Back Door
e-chords

Other versions:

tabs Chase Atlantic - Vibes
auto scroll beats size up size down change color hide chords drawings
tab show chords e-chords YouTube Clip e-chords hide all tabs e-chords go to top tab

share