Charlie Brown Jr.

Essa é pra quem ficou pra trás

Charlie Brown Jr.

tabs

save to print version add songbook text version e-mail correct tuner
chordsukulelecavacokeyboardtabbassdrumsharmonicaflute Guitar Pro
close

there isn't a video lesson for this song

chords

Essa é pra quem ficou pra trás

	  		Introdução
E|-------------------------------------------------------------------------|
B|-------------------------------------------------------------------------|
G|-------------------------------------------------------------------------|
D|----5---5-------8---8--------5---5---5--5-6-8-6-5-6-----5--5------8---8-----5-|
A|---6-6---6----6-6---6------6-6---6---6------------------6-6--6----6-6---6----6-|
E|--3----3---3/6----6---6---3----3---3--------------------3---3?3/6----6---6--3-|
                                                                   Riff 1
|------------------------------------------------|-------------------------|
|------------------------------------------------|------------------------|
|------------8-8--8---5-5--5------------------|---------------8-8-8---10-10-10----------|
|------------8-8--8---5-5--5--8-8-8---------|-8-8-8-8-8---x-x-x----x--x---x----8-8-8-8-8----
|-6-6--6---6-6--6---3-3--3--8-8--8---(3x)-|-8-8-8-8-8--6-6-6----8--8---8----8-8-8-8-8----
|-3-3--3-----------------------6-6--6---------|-6-6-6-6-6--------------------------6-6-6-6-6----
                                  Verso
|-------------------------------------------------------------------------|
|----------------------|--------------------------------------------------|
|--10-10-10--5--10-|-8-8-8-8-8--5-5-5-----------------------------------------------------|
|--x--x---x----x--x--|-8-8-8-8-8--5-5-5--8-8-8--------------------------------------------|
|--8--8---8----3--8--|-6-6-6-6-6--3-3-3--8-8-8----(3x)----------------------------------------|
|----------------------|-----------------------6-6-6--------------------------|
Solo
|--8----------10------------11---11----11------------------------------------------|
|---11----11---11-----11----11---11----11-----------------------------------------------|
|-8---8--8--8-----8--8---8-----8-----8-----8----5--------------------------------------|
|----------------------------------------------------5--8--------------------|
|----------------------------------------------------3--8---------------------|
|-------------------------------------------------------6------------------|
Repete verso
Riff 1
Parte do Baixo
Solo
Verso
Solo

Parte 2
|-------------------------------------------------------------------------|
|-------------------------------------------------------------------------|
|-------------------------------------------------------------------------|
|----------------------------------------8-8-8-8-8-8-8----------------|
|-6-6-6-6-6-6-6-6-6-6-6-6-6-6-6--6-6-6-6-6-6-6-6-5-6---------|
|-3-3-3-3-3-3-3-3/4-4-4-4-4-4-4-----------------------------------|



Solo 2
|---------------------------------------------------------------------------------------------------------------------|
|---11-9-8-8p9h8---------------------------------------------11-9-8-8p9h8-------------------------------------
|-8-----------------8------------------------------------------8----------------8~~~~~8~~~~8----------------------
|---------------------8--8-6-5-6h5-6-8-6h5-6-8-6-6/8------------------------------12~~~--------------|
|-----------------------6----------------------------------------------------------------------------------------------|
|-------------------------------------------------------------------------|
Repete Parte 2

_______________________________________________________
Contribuição: Cassiano Ribeiro Kaluf([email protected])
		  

See also:

tabs Charlie Brown Jr. - Lutar pelo que é meu tabs Charlie Brown Jr. - Não é sério(ver.3) tabs Charlie Brown Jr. - Não Viva Em Vão tabs Charlie Brown Jr. - Cidade Grande tabs Charlie Brown Jr. - I Feel So Good Today (Solo) tabs Charlie Brown Jr. - Bons Aliados
e-chords

Other versions:

tabs Charlie Brown Jr. - Essa é pra quem ficou pra trás
auto scroll beats size up size down change color hide chords drawings
tab show chords e-chords YouTube Clip e-chords hide all tabs e-chords go to top tab

share