Charles W. Fry

Lily Of The Valley

Charles W. Fry

tabs

by  UBIRBOMFIM

save to print version add songbook text version e-mail correct tuner
chordsukulelecavacokeyboardtabbassdrumsharmonicaflute Guitar Pro
close

there isn't a video lesson for this song

chords

Lily Of The Valley

	  		
e|---------------------------------------------------------------------------| 
B|---------1---1----3----1---------------------------------------------------| 
G|2---3----------------------2---------0---------------------0----2--2---2---| 
D|3---3----3---3----3----3---3----3----0--3--3----0-----3---------3--3---3---| 
A|--------------------------------3-------5--5----1--3--3----3---------------| 
E|---------------------------------------------------------------------------| 
  I have found a friend in Jesus He's everything to me He's the fairest of     
e|---------------------------------------------------------------------------| 
B|------3---1---1--------------1-1--3--1---1---------------------------------| 
G|-2------------2-2----0---2------------------2------0------------------0----| 
D|-3----3---3-----3----2---3---3-3--3--3---3--3---3--0---3-3--0------3-------| 
A|------------------------------------------------3------5-5--1--3---3--3----| 
E|---------------------------------------------------------------------------| 
  ten thousand to my soul the lily of the valley in him alone i see all i  
e|---------------------------------------------------------------------------| 
B|------1-------------------------------------------------------3----3-------| 
G|--2---2----2--------------3--2-0------------3--3--3----3---3---------------| 
D|--3--------3-----3----0---5--3-2----3----3--0--0--0----0---0--3----3-------| 
A|-----------------3----2-------------3--------------------------------------| 
E|---------------------------------------------------------------------------| 
  need to cleanse and make me fully whole in sorrow he's my comfort in  
e|------------------------------------------------------------------------------------| 
B|-3-------1--------1----------------------3---1--1-----------------------------1-1--3| 
G|---------2---2----2---2-0-----------------------2---2--0----2----3------------------| 
D|-3-----------3-------------3---3--3-3----3---3------3--2----3----2------------3-3--3| 
A|----------------------3----3---3----------------------------------------------------| 
E|------------------------------------------------------------------------------------| 
  trouble He's my stay He tells me every care on him to roll he's the (Chorus) lily of 
e|---------------------------------------------------------------------------| 
B|-1---1-----------------------------------------------1---------------------| 
G|--------2--------0---------------------------0----2--2---2---------3-----2-| 
D|-3---3--3---3----0-----3----3--0--------3---------3------3--3----0-4-----3-| 
A|------------3----------5----5--1----3---3----3--------------3----2---------| 
E|---------------------------------------------------------------------------| 
  the valley the bright and morning star he's the fairest of ten thousand to  
e|---------------------------------------------------------------------------| 
B|---------------------------------------------------------------------------| 
G|-3-------------------------------------------------------------------------| 
D|-2---3---------------------------------------------------------------------| 
A|-----3---------------------------------------------------------------------| 
E|---------------------------------------------------------------------------| 



************************************ 

| /   slide up 
| \   slide down 
| h   hammer-on 
| p   pull-off 
| ~   vibrato 
| +   harmonic 
| x   Mute note 
| b   Bend 
| pb  Pre-bend 
| br  Bend release 
| pbr Pre-bend release 
| brb Bend release bend 

************************************ 
		  

auto scroll beats size up size down change color hide chords drawings
tab show chords e-chords YouTube Clip e-chords hide all tabs e-chords go to top tab

share