Charles Gounod

home > Charles Gounod

Ave Maria Sobre Prelúdio de J. S. Bach em Dó, BWV846 Tab

Charles Gounod

Difficulty: ExpertExpert

by grecia

tuner correct add songbook print version text version save to e-mail
chordsukulelecavacokeyboardtabbassdrumsharmonicsflute Guitar Pro
chords

Ave Maria Sobre Prelúdio de J. S. Bach em Dó, BWV846

  		Ave Maria de Gounod sobre Prelúdio de J. S. Bach em Dó, BWV846 
 
Allegro 
 
 1   C                 Dm/C              G7/B              C 
 E |---------0-----0-|---------1-----1-|---------1-----1-|---------0-----0-| 
 B |-------1-----1---|-------3-----3---|-------3-----3---|-------1-----1---| 
 G |-----0-----0-----|-----2-----2-----|-----0-----0-----|-----0-----0-----| 
 D |---2-------------|---0-------------|---0-------------|---2-------------| 
 A |-3---------------|-3---------------|-2---------------|-3---------------| 
 D |-----------------|-----------------|-----------------|-----------------| 
 
       II&V........ 
 5   Am/C              D/C               G/B               C 
 E |---------5-----5-|-----------------|---------3-----3-|-----------------| 
 B |-------5-----5---|---------3-----3-|-------3-----3---|---------1-----1-| 
 G |-----2-----2-----|-------2-----2---|-----0-----0-----|-------0-----0---| 
 D |---2-------------|---0h4-----4-----|---0-------------|-----2-----2-----| 
 A |-3---------------|-3---------------|-2---------------|-2h3-------------| 
 D |-----------------|-----------------|-----------------|-----------------| 
 
                                                          V................ 
 9  Am7               D7                G                 Gdim 
 E |-----------------|-----------------|-----------------|-----------------| 
 B |---------1-----1-|-----------------|---------0-----0-|-----------------| 
 G |-------0-----0---|---------5-----5-|-------0-----0---|---------6-----6-| 
 D |-----2-----2-----|-----0-4-----4---|-----0-----0-----|-------5-----5---| 
 A |-0h3-------------|---0-------5-----|---2-------------|-----7-----7-----| 
 D |-----------------|-0---------------|-5---------------|-5h8-------------| 
 
                      III.............. II.&..V.........  I............... 
13  Dm/F              Fdim              C/E               F/E 
 E |-----------------|-----------------|-----------------|---------1-----1-| 
 B |---------3-----3-|-----------------|-----------------|-------1-----1---| 
 G |-------2-----2---|---------4-----4-|---------5-----5-|-----2-----2-----| 
 D |-----0-----0-----|-------3-----3---|-------5-----5---|-2h3-------------| 
 A |---0-------------|-----5-----5-----|-----3-----3-----|-----------------| 
 D |-3---------------|-3h6-------------|-2h5-------------|-----------------| 
 
    I................ 
17  Dm7               G7                C                 C7 
 E |---------1-----1-|---------1-----1-|---------0-----0-|---------0-----0-|  
 B |-------1-----1---|-------0-----0---|-------1-----1---|-------1-----1---| 
 G |-----2-----2-----|-----0-----0-----|-----0-----0-----|---0h3-----3-----| 
 D |-0-3-------------|---0-------------|---2-------------|-----------------| 
 A |-----------------|-----------------|-3---------------|-3---------------| 
 D |-----------------|-5---------------|-----------------|-----------------| 
  
                      {see below for alternative fingering} 
                      III.................................................. 
21  Fmaj7             F#dim             Dm7/b5/13          G7 
 E |---------0-----0-|-----------------|-----------------|-----------------| 
 B |-------1-----1---|---------4-----4-|---------3-----3-|---------3-----3-| 
 G |-----2-----2-----|-------5-----5---|-----4-5---4-5---|-------4-----4---| 
 D |---3-------------|-----7-----7-----|---3-------------|---3h5-----5-----| 
 A |-----------------|---3-------------|-----------------|-----------------| 
 D |-3---------------|-4---------------|-6---------------|-5---------------| 
                       2 1 4 3 1 4 3 1   4 1 2 3 1 2 3 1 
                                         p i m i a m i a 
 
     V.................................                    V............... 
25   C/G               G7sus             G7                F#dim/G 
 E |-----------------|-----------------|---------1-----1-|-----------------| 
 B |---------5-----5-|---------6-----6-|-------0-----0---|---------7-----7-| 
 G |-------5-----5---|-------5-----5---|-----0-----0-----|-------5-----5---| 
 D |-----5-----5-----|-----5-----5-----|---0-------------|-----7-----7-----| 
 A |---7-------------|---5-------------|-----------------|---6-------------| 
 D |-5---------------|-5---------------|-5---------------|-5---------------| 
 
    V..................................                   III.............. 
29  C/G               G7sus             G7                C7 
 E |-----------------|-----------------|---------1-----1-|-----------------| 
 B |---------8-----8-|---------6-----6-|-------0-----0---|---------5-----5-| 
 G |-------5-----5---|-------5-----5---|-----0-----0-----|-------3-----3---| 
 D |-----5-----5-----|-----5-----5-----|---0-------------|-----5-----5-----| 
 A |---7-------------|---5-------------|-----------------|-3-3-------------| 
 D |-5---------------|-5---------------|-5---------------|-----------------| 
      
            I...........                III....................... 
33  F/C               Dm7               G7/B 
 E |-----------1-----------------------|-----------1-----------------------| 
 B |---------1---1----1----------------|-------0-3---3-0-3-0---0-----------| 
 G |-------2-------2----2---2----------|-----0---------------0-------------| 
 D |-----3----------------3---3-0-3-0--|-------------------------0-3-2-0---| 
 A |-3-3-------------------------------|-3-2-------------------------------| 
 D |-----------------------------------|-----------------------------------| 
 
35 
    C 
 E |------------------|| 
 B |-1----------------|| 
 G |-0----------------|| 
 D |-2----------------|| 
 A |-3----------------|| 
 D |------------------|| 
 

	  

Full key step upFull key step up
Half key step upHalf key step up
Half key step downHalf key step down
Full key step downFull key step down
Search Paypal
auto scroll beats size up size down change color hide chords drawings
tab show chords e-chords YouTube Clip e-chords hide all tabs e-chords go to top tab