Charles Bradley

I Believe In Your Love

Charles Bradley

tabs

by  PAULLET3

save to print version add songbook text version e-mail correct tuner
chordsukulelecavacokeyboardtabbassdrumsharmonicaflute Guitar Pro
close

there isn't a video lesson for this song

chords

I Believe In Your Love

	  		

Intro and Main Riff                         Rhythm Guitar Just does 
    Am7        F7           Am 
e|---5-----5----------------------------|--------5---5--------5----5---------| 
B|---5--8--5---4-----6-4------5---------|--------5---5--------4----4---------| 
G|---5--5--5---5-----5-5------5---------|--------5---5--------5----5---------| 
D|---5--5------3--------------5---------|--------5---5------3----3-----------| 
A|--------------------------------------|------------------------------------| 
E|-----------------------3/--5----------|------5----5------------------------| 

Bridge @0:46 
   E 
e|---------0-----------------------------------------------------------------| 
B|---------0-----------------------------------------------------------------| 
G|--0h1----1---0h1-----------------------------------------------------------| 
D|--2----------2-------------------------------------------------------------| 
A|--2----------2-------------------------------------------------------------| 
E|---------------------------------------------------------------------------| 

When I....  I believe in your love 
  Dm           G            Dm riff    G     Dm riff   G    
e|-------------3--------------------------3-----------5h8p5-------3----------| 
B|----6h8p6----3--5p3-5p3--------6h8h6----3-----------6----6h8p8--3--5p3-5p3-| 
G|----5-----5--4--4---4----------5------5-4-----------5-----------4--4---4---| 
D|--7----------5---------------7----------5---------7-------------5----------| 
A|-5-----------5-------------5------------5-------5---------------5----------| 
E|---------------------------------------------------------------------------| 

   /Am      G  Am 
e|-/5------------------------------------------------------------------------| 
B|-/5-------3--5-------------------------------------------------------------| 
G|-/5-------4--5-------------------------------------------------------------| 
D|-/5-------5--5-------------------------------------------------------------| 
A|-/7-------5--7-------------------------------------------------------------| 
E|---------------------------------------------------------------------------| 

Back to Main Riff then 

@1:57 (Bridge Again) 
   E 
e|---------0-----------------------------------------------------------------| 
B|---------0-----------------------------------------------------------------| 
G|--0h1----1---0h1-----------------------------------------------------------| 
D|--2----------2-------------------------------------------------------------| 
A|--2----------2-------------------------------------------------------------| 
E|---------------------------------------------------------------------------| 

When I....  I believe in your love 
  Dm           G            Dm riff    G     Dm riff   G    
e|-------------3--------------------------3-----------5h8p5-------3----------| 
B|----6h8p6----3--5p3-5p3--------6h8h6----3-----------6----6h8p8--3--5p3-5p3-| 
G|----5-----5--4--4---4----------5------5-4-----------5-----------4--4---4---| 
D|--7----------5---------------7----------5---------7-------------5----------| 
A|-5-----------5-------------5------------5-------5---------------5----------| 
E|---------------------------------------------------------------------------| 

   /Am      G  Am 
e|-/5------------------------------------------------------------------------| 
B|-/5-------3--5-------------------------------------------------------------| 
G|-/5-------4--5-------------------------------------------------------------| 
D|-/5-------5--5-------------------------------------------------------------| x4 
A|-/7-------5--7-------------------------------------------------------------| 
E|---------------------------------------------------------------------------| 

@2:30 
   Am      Gm  Bbmaj7 higher   x4 
e|---------------5-----------------------------------------------------------| 
B|-5-------3-----6-----------------------------------------------------------| 
G|-5-------3-----7-----------------------------------------------------------| 
D|-5-------3-----8-----------------------------------------------------------| 
A|-7-------5-----------------------------------------------------------------| 
E|---------------------------------------------------------------------------| 

Bass thing (over intro chords) then back to Main Riff 


************************************ 

| /   slide up 
| \   slide down 
| h   hammer-on 
| p   pull-off 
| ~   vibrato 
| +   harmonic 
| x   Mute note 
| b   Bend 
| pb  Pre-bend 
| br  Bend release 
| pbr Pre-bend release 
| brb Bend release bend 

************************************ 
		  

Full key step upFull key step up
Half key step upHalf key step up
Half key step downHalf key step down
Full key step downFull key step down
auto scroll beats size up size down change color hide chords drawings
tab show chords e-chords YouTube Clip e-chords hide all tabs e-chords go to top tab

share