Chancho en Piedra

Volantin

Chancho en Piedra

tabs

by  NACHO_63

save to print version add songbook text version e-mail correct tuner
chordsukulelecavacokeyboardtabbassdrumsharmonicaflute Guitar Pro
close

there isn't a video lesson for this song

chords

Volantin

	  		Volantin 
					  
E|----------------------------------| 
B|----------------------------------| 
G|-9p11-9---------------------------| 
D|--------11p12-11-11p12-11-9-------| 
A|----------------------------12-10-| 
E|----------------------------------| 
						 
Verso:  estos son los acordes ocupados				 
     #1            #2                    #3 					 
E|-xx-------||-xx--------||-xx-------|/|-xx-------|-xx-------| 
B|-xx-------||-xx--------||-xx-------|/|-xx-------|-xx-------| 
G|-------14-||--------12-||-------12-|/|-------14-|-------12-|. 
D|-------14-||--------12-||-------12-|/|-------14-|-------12-| 
A|-12-------||-10--------||-10-------|/|-12-------|-10-------| 
E|-xx-------||-xx--------||-xx-------|/|-xx-------|-xx-------| 
 
#1                                              #2 #3 #2 #3  
Miro hacia el cielo con mi derecha me pongo a elevar 
#1                                            #2 #3 #2 #3 
no se imaginan todo el placer ke esto a mi me da y no te miento 
#2                                       #1 
hago los tirantes y me pongo a encumbrar 
 
donde dice ...mas alla del cielo vamos juntos a llegar... viene esto 
 
E|-------------------------------------| 
B|-------------------------------------| 
G|-------------------------------------| 
D|-------9-11-12-11-9----------9-------| 
A|-10-12--------------12-10-12---12-10-| 
E|-------------------------------------|            
 
Coro:A encumbrar volantin..... 
                                 ^^                                                | $ |  
E|-------x-x-x-x-xx-x-xx-x-xx-xx-xx-x-x-x-x-xx-x-xx-x-xx-xx-xx-xx-x-xx-x-xx-xx-x-x-x-x-x-| 
B|-------9-9-9-9-xx-9-11-9-11-11-11-9-9-9-9-xx-9-11-9-11-11-11-11-9-11-9-11-11-9-9-7-7-7-|sigue 
G|-------9-9-9-9-11-9-11-9-11-11-11-9-9-9-9-11-9-11-9-11-11-11-11-9-11-9-11-11-9-9-7-7-7-| 
D|-11-12---------11-------------------------11-------------------------------------------| 
A|---------------------------------------------------------------------------------------| 
E|---------------------------------------------------------------------------------------| 
 
   |x varias|      |x varias|                         ^^ 
E|-x-x-x-x-x-x-x/x-x-x-x-x-x--x-x-x-x-xx-x-xx-x-xx-xx-xx-x-x-x-x-xx-x-xx-|esto es el coro 
B|-4-4-4-4-4-7-7/9-9-9-9-9-9--9-9-9-9-xx-9-11-9-11-11-11-9-9-9-9-xx-9-11-|de inmediato esto 
G|-4-4-4-4-4-7-7/9-9-9-9-9-9--9-9-9-9-11-9-11-9-11-11-11-9-9-9-9-11-9-11-| 
D|------------------------------------11-------------------------11------| 
A|-----------------------------------------------------------------------| 
E|-----------------------------------------------------------------------| 
 
 
E|----------------------------------------------| 
B|----------------------------------------------| 
G|----------------9p11-9------------------------| 
D|-12-11-12/14-11--------11p12-11-12-11-9-------| 
A|----------------------------------------12-10-| 
E|----------------------------------------------| 
 
E|--------------------------------------------------------------------------------------------|> 
B|--------------------------------------------------------------------------------------------|> 
G|----------------9p11-9--------------------------------------9-11-12-9p11-9------------------|> 
D|-12-11-12/14-11--------11p12-11-12-11-9-------------9-11-12----------------11p12-11-12-11-9-|> 
A|----------------------------------------12-10-10-12-----------------------------------------|> 
E|--------------------------------------------------------------------------------------------|> 
 
          x varias 
E|------|----------|               |----------------------------------------------------------|> 
B|------|----------|               |----------------------------------------------------------|> 
G|------|----------|               |----------------------------------------------------------|> 
D|------|-------11-|               |----------------------------------------------------------|> 
A|-12-9-|-9--------|               |-----2-4-5-4-2-------2-5-4-----2-4-5-------2---------2-4--|> 
E|------|----------|               |-3-5-----------5-3-5-------3-5-------5-3-5---5-3-3-5------|> 
 
 
 
E|--------------------------------------------------------------------------------------------| 
B|--------------------------------------------------------------------------------------------| 
G|--------------------------------------------------------------------------------------------| 
D|-------------------------------------------------------------------2-4-2--------------------| 
A|-5-4-----2-5-4-----2-4-5-4-2-------2-------5-4-0-2---5-4-0-2-2-2-4-------5-4-4/16-----------| 
E|-----3-5-------3-5-----------5-3-5---5-3-3---------3----------------------------------------| 
 
E|---------------|---------|---------|--------------|---------|---------|---------| 
B|---------------|---------|---------|--------------|---------|---------|---------| 
G|-------9/---11-|-------9-|-------7-|-------7/---9-|-------6-|-------6-|-------7-| 
D|---------------|---------|---------|--------------|---------|---------|---------| 
A|-7/---9--------|-7-------|-5-------|-5/---7-------|-4-------|-4-------|-5-------|  
E|---------------|---------|---------|--------------|---------|---------|---------| 
 
 
E|---------|---------|---------|---------------|---------|----------------|-----------|> 
B|---------|---------|---------|---------------|---------|----------------|-----------|> 
G|-------6-|-------4-|---------|-------9/---11-|-------9-|-------11/---12-|-------11--|> 
D|---------|---------|-------7-|---------------|---------|----------------|-----------|> 
A|-4-------|-2-------|---------|-7/---9--------|-7-------|-9/---10--------|-9---------|> 
E|---------|---------|-5-------|---------------|---------|----------------|-----------|> 
 
           <           esto va todo con rasgueo           >                              
E|---------|--------------|--------------|---------------|---------------|----------|> 
B|---------|--------------|--------------|---------------|---------------|----------|> 
G|-------6-|-------6/---7-|-------7/---9-|-------9/---11-|-------9/---11-|-------9--|> 
D|---------|--------------|--------------|---------------|---------------|----------|> 
A|-4-------|-4/---5-------|-5/---7-------|-7/---9--------|-7/---9--------|-7--------|> 
E|---------|--------------|--------------|---------------|---------------|----------|> 
 
 
E|----------------|----------|-----------------|-----------|-----------| 
B|----------------|----------|-----------------|-----------|-----------| 
G|-------11/---12-|-------11-|--------12/---14-|--------13-|--------12-| 
D|----------------|----------|-----------------|-----------|-----------| 
A|-9/---10--------|-9--------|-10/---12--------|-11--------|-10--------| 
E|----------------|----------|-----------------|-----------|-----------| 

		  

See also:

tabs Chancho en Piedra - Locura espacial tabs Alvaro Henríquez - Sirviente Y No Patrona tabs Alvaro Veliz - No Se Vivir tabs Alejandro Silva - Er Rock tabs Chancho en Piedra - Volantin tabs Alejandro Silva - Neopangea
e-chords

Other versions:

tabs Chancho en Piedra - Volantin tabs Chancho en Piedra - Volantin (ver. 2)
auto scroll beats size up size down change color hide chords drawings
tab show chords e-chords YouTube Clip e-chords hide all tabs e-chords go to top tab

share