Chancho en Piedra

Niño peo

Chancho en Piedra

tabs

by  NACHO_63

save to print version add songbook text version e-mail correct tuner
chordsukulelecavacokeyboardtabbassdrumsharmonicaflute Guitar Pro
close

there isn't a video lesson for this song

chords

Niño peo

	  		Verso: 
e-------------------| 
b-------------------| 
g-9-----------9-----| 
d-9---9---5---9-----| 
a-7---9---5---7-----| 
E-----7---3---------| 
 
Los tira y los domina.... 
 
e------------| 
b------------| 
g------------| 
d-6-9--6-6-9-| Varias veces 
a-6-9--6-6-9-| 
E-4-7--4-4-7-| 
 
Esta practicando pa' un futuro cercano... 
e---| 
b---| 
g---| 
d-7-|Varias veces 
a-7-| 
E-5-| 
 
        Que es lo que veo?.... 
 
e----------------- 
b----------------- 
g-13-12-9--9-13-9-| 
d-13-12-9--9-13-9-| 
a-11-10-7--7-11-7-| 
E----------------- 
 
Niño-Peo... 
 
e-----------------| 
b-----------------| 
g-9/8-8/7-xxx-x-xx| 
d-9/8-8/7-xxx-x-xx| 
a-7/6-6/5-xxx-x-xx| 
E-----------------| 
  No huele raro... 
e-----------------| 
b-----------------| 
g-13-12-9--9-13-9-| 
d-13-12-9--9-13-9-| 
a-11-10-7--7-11-7-| 
E-----------------| 
 
Pierdan cuidado por que tan solo es gassss.... 
 
e--------------------------------------|                      
b--------------------------------------|                            
g--------------------------------------|                 
d-7-~-~-~------9-~-~-~------------2-~-~| 
a-7-~-~-~------9-~-~-~------------2-~-~|                  
E-5-~-~-~------7-~-~-~------------0-~-~|                  
 
 
 
Solo: 
 
e-------------------------------------------------------------12-12-12-x-12-12-12------------- 
b-15-x-14h15-14h15-14h15--------------------------------------17-17-17-x-17-17-17------------- 
g-12 x-------------------12h14-12------12h14-14^-12-14-14^-12--------------------------------- 
d---------------------------------14---------------------------------------------------------- 
a--------------------------------------------------------------------------------------------- 
E--------------------------------------------------------------------------------------------- 
 
 
 
e----------12'-------------------------------15-------------15-------------------------------- 
b-10h12h10----10h12^-10h12^-10h12^-10h12^-------17-------------17----------------------------- 
g-----------------------------------------9--------16-14-12-------16-14-12-------------------- 
d--------------------------------------------------------------------------------------------- 
a--------------------------------------------------------------------------------------------- 
E--------------------------------------------------------------------------------------------- 
 
 
e--------------------------------------------------------------------------------------------- 
b-12h14-12h14--14h15h14-12h15h14-12h15h14-12h15h14--14h15h14-12h15h14-12h15h14-12h15h14-16^`´- 
g--------------------------------------------------------------------------------------------- 
d--------------------------------------------------------------------------------------------- 
a--------------------------------------------------------------------------------------------- 
E--------------------------------------------------------------------------------------------- 
 

		  

See also:

tabs Alejandro Silva - Neopangea tabs Alvaro Veliz - No Se Vivir tabs Alejandro Silva - Metal Himno tabs Alegría - Por Qué No Contestas tabs Los Angeles Negros - Y Volvere tabs Alvaro Veliz - Detective Conan
e-chords

Other versions:

tabs Chancho en Piedra - Niño peo
auto scroll beats size up size down change color hide chords drawings
tab show chords e-chords YouTube Clip e-chords hide all tabs e-chords go to top tab

share