Chancho en Piedra

Locura espacial

Chancho en Piedra

tabs

by  NACHO_63

save to print version add songbook text version e-mail correct tuner
chordsukulelecavacokeyboardtabbassdrumsharmonicaflute Guitar Pro
close

there isn't a video lesson for this song

chords

Locura espacial

	  		 Intro (usando wah-wah) 
E|--12-12-12----xxxx--xx----------------12-11-9-----------------| 
B|--------------xxxx--xx-5h7-5-7b8-5------------12-10-9---------| 
G|---9--9--9--------------------------------------------11b12---| 
D|--------------------------------------------------------------| 
A|--------------------------------------------------------------| 
E|--------------------------------------------------------------| 
 
 
E|-------xx--xxxx-------------------12-12-----------------------| 
B|--9----xx--xxxx-5h7-5-7b8-5----12--------------12-------------| 
G|--9----xx--xxxx--------------------9--9-----------------------| 
D|--9-----------------------------9---------------9-------------| 
A|--------------------------------------------------------------| 
E|--------------------------------------------------------------| 
 
                                                  
E|--------------------------------------------------------------| 
B|--9--9--10--10--10--10--9--9--9--9--9-------------------------| 
G|--9--9---9---9---9---9--9--9--9--9--9--9----------------------| 
D|--9--9---9---9---9---9--9--9--9--9--9----11-9-----------------| 
A|----------------------------------------------12-11-9---------| 
E|--------------------------------------------------------------| 
 
 
E|--------------------------------------------------------------| 
B|--9--9--10--10--10--10--9--9--9--9--9-------------------------| 
G|--9--9---9---9---9---9--9--9--9--9--9--9----------------------| 
D|--9--9---9---9---9---9--9--9--9--9--9----11-9-----------------| 
A|----------------------------------------------12-11-9---------| 
E|--------------------------------------------------------------| 
 
 
		Verso 
E|--4--4---4--4----4-5---5--5----4--4--4--4---------------------| 
B|--5---5--5--5----5--5--5--5----5--5--5--5--5-7-7b8-5-7-7b8----| 
G|--4--4---4--4----4-4---4--4----4--4--4--4---------------------| 
D|--------------------------------------------------------------| 
A|--------------------------------------------------------------| 
E|--------------------------------------------------------------| 
 
 
E|--4--4---4--4----4-5---5--5----4--4--4--4--12-11--------------| 
B|--5---5--5--5----5--5--5--5----5--5--5--5--------12-----------| 
G|--4--4---4--4----4-4---4--4----4--4--4--4-----------10-9------| 
D|---------------------------------------------------------11b12| 
A|--------------------------------------------------------------| 
E|--------------------------------------------------------------| 
 
 
E|--4--4---4--4----4-5---5--5----4--4--4--4---------------------| 
B|--5---5--5--5----5--5--5--5----5--5--5--5--5-7-7b8-5-7-7b8----| 
G|--4--4---4--4----4-4---4--4----4--4--4--4---------------------| 
D|--------------------------------------------------------------| 
A|--------------------------------------------------------------| 
E|--------------------------------------------------------------| 
 
 
E|--4--4---4--4----4-5---5--5----4--4--4--4------12-12-12-------| 
B|--5---5--5--5----5--5--5--5----5--5--5--5---12----------------| 
G|--4--4---4--4----4-4---4--4----4--4--4--4-------9--9--9-------| 
D|---------------------------------------------9----------------| 
A|--------------------------------------------------------------| 
E|--------------------------------------------------------------| 
 
 
E|-----12-12-12-12----------------------------------------------| 
B|--12----------------------------------------------------------| 
G|------9--9--9--9----------------------------------------------| 
D|---9----------------------------------------------------------| 
A|--------------------------------------------------------------| 
E|--------------------------------------------------------------| 
	 
 
		 
E|--------------------------------------------------------------| 
B|--------------------------------------------------------------| 
G|--------------------------------------------------------------| 
D|--------------------------------------------------------------| 
A|--------2-0----------------2-4-2--------------2-0-------------| 
E|--0-2-4-----4-2-0----0-2-4-------0-4----0-2-4-----4-2-0-------| 
 
	 
E|--------------------------------------------------------------| 
B|--------------------------------------------------------------| 
G|---------------------------1----------------------------------| 
D|-------------------------2---2--------------------------------| 
A|--------2-4-2--------2-4-------4-2----------------------------| 
E|--0-2-4-------0-4---------------------------------------------| 
 
 
E|--------------------------------------------------------------| 
B|--------------------------------------------------------------| 
G|--------------------------------------------------------------| 
D|--------------------------------------------------------------| 
A|--------2-0----------------2-4-2--------------2-0-------------| 
E|--0-2-4-----4-2-0----0-2-4-------0-4----0-2-4-----4-2-0-------| 
 
	 
E|----------------------------------12-12----12-12-12-----------| 
B|-------------------------------12-------12--------------------| 
G|-----------------------------------9--9-----9--9--9-----------| 
D|--------------------------------9--------9--------------------| 
A|--------2-4-2--------------2----------------------------------| 
E|--0-2-4-------0-4----0-2-4---2--------------------------------| 
       
 
		Verso 
E|--4--4---4--4----4-5---5--5----4--4--4--4---------------------| 
B|--5---5--5--5----5--5--5--5----5--5--5--5--5-7-7b8-5-7-7b8----| 
G|--4--4---4--4----4-4---4--4----4--4--4--4---------------------| 
D|--------------------------------------------------------------| 
A|--------------------------------------------------------------| 
E|--------------------------------------------------------------| 
 
 
E|--4--4---4--4----4-5---5--5----4--4--4--4--12-11--------------| 
B|--5---5--5--5----5--5--5--5----5--5--5--5--------12-----------| 
G|--4--4---4--4----4-4---4--4----4--4--4--4-----------10-9------| 
D|---------------------------------------------------------11b12| 
A|--------------------------------------------------------------| 
E|--------------------------------------------------------------| 
 
 
E|--4--4---4--4----4-5---5--5----4--4--4--4---------------------| 
B|--5---5--5--5----5--5--5--5----5--5--5--5--5-7-7b8-5-7-7b8----| 
G|--4--4---4--4----4-4---4--4----4--4--4--4---------------------| 
D|--------------------------------------------------------------| 
A|--------------------------------------------------------------| 
E|--------------------------------------------------------------| 
 
 
E|--4--4---4--4----4-5---5--5----4--4--4--4------12-12-12-------| 
B|--5---5--5--5----5--5--5--5----5--5--5--5---12----------------| 
G|--4--4---4--4----4-4---4--4----4--4--4--4-------9--9--9-------| 
D|---------------------------------------------9----------------| 
A|--------------------------------------------------------------| 
E|--------------------------------------------------------------| 
 
 
E|-----12-12-12-12----------------------------------------------| 
B|--12----------------------------------------------------------| 
G|------9--9--9--9----------------------------------------------| 
D|---9----------------------------------------------------------| 
A|--------------------------------------------------------------| 
E|--------------------------------------------------------------| 
	 
 
 
E|--------------------------------------------------------------| 
B|--------------------------------------------------------------| 
G|--------------------------------------------------------------| 
D|--------------------------------------------------------------| 
A|--------2-0----------------2-4-2--------------2-0-------------| 
E|--0-2-4-----4-2-0----0-2-4-------0-4----0-2-4-----4-2-0-------| 
 
	 
E|--------------------------------------------------------------| 
B|--------------------------------------------------------------| 
G|---------------------------1----------------------------------| 
D|-------------------------2---2--------------------------------| 
A|--------2-4-2--------2-4-------4-2----------------------------| 
E|--0-2-4-------0-4---------------------------------------------| 
 
 
E|--------------------------------------------------------------| 
B|--------------------------------------------------------------| 
G|--------------------------------------------------------------| 
D|--------------------------------------------------------------| 
A|--------2-0----------------2-4-2--------------2-0-------------| 
E|--0-2-4-----4-2-0----0-2-4-------0-4----0-2-4-----4-2-0-------| 
 
 
		Pre-Coro  
E|--------------------------------------------------------------| 
B|--------------------------------------------------------------| 
G|--------------------------------------------------------------| 
D------------------------------11-------------------------------| 
A|--4-4-4-6-6-6-7-7-7-11-11-11--9--11---------------------------| 
E|--2-2-2-4-4-4-5-5-5--9--9--9------9---------------------------| 
 
 
		Coro  
E|--------------------------------------------------------------| 
B|---------------------7----------------------------------------| 
G|---------------9-8-9---9-8------------------------------------| 
D|--9-9-9-9------------------9----------------------------------| 
A|--7-7-7-7-----------------------------------------------------| 
E|--------------------------------------------------------------|         
 
 
E|--------------------------------------------------------------| 
B|-------------------5------5-----------------------------------| 
G|---------------4-6----4-6-------------------------------------| 
D|--9-9-9-9-----------------------------------------------11----| 
A|--7-7-7-7--------------------4-4-4-6-6-6-7-7-7-11-11-11--9--11| 
E|-----------------------------2-2-2-4-4-4-5-5-5--9--9--9------9|         
 
 
E|--------------------------------------------------------------| 
B|---------------------7----------------------------------------| 
G|---------------9-8-9---9-8------------------------------------| 
D|--9-9-9-9------------------9----------------------------------| 
A|--7-7-7-7-----------------------------------------------------| 
E|--------------------------------------------------------------|         
 
 
E|--------------------------------------------------------------| 
B|-------------------5------5-----------------------------------| 
G|---------------4-6----4-6-------------------------------------| 
D|--9-9-9-9-----------------------------------------------11----| 
A|--7-7-7-7--------------------4-4-4-6-6-6-7-7-7-11-11-11--9--11| 
E|-----------------------------2-2-2-4-4-4-5-5-5--9--9--9------9|         
 
 
		Sera normal...  
E|--4--4---4--4----4-5---5--5----4--4--4--4---------------------| 
B|--5---5--5--5----5--5--5--5----5--5--5--5--5------------------| 
G|--4--4---4--4----4-4---4--4----4--4--4--4----6-4--------------| 
D|-------------------------------------------------7-6-4--------| 
A|--------------------------------------------------------------| 
E|--------------------------------------------------------------| 
 
 
E|--4--4---4--4----4-5---5--5----4--4--4--4---------------------| 
B|--5---5--5--5----5--5--5--5----5--5--5--5--5------------------| 
G|--4--4---4--4----4-4---4--4----4--4--4--4----6-4--------------| 
D|-------------------------------------------------7-6-4--------| 
A|--------------------------------------------------------------| 
E|--------------------------------------------------------------| 
 
 
E|--4--4---4--4----4-5---5--5----4--4--4--4---------------------| 
B|--5---5--5--5----5--5--5--5----5--5--5--5--5------------------| 
G|--4--4---4--4----4-4---4--4----4--4--4--4----6-4--------------| 
D|-------------------------------------------------7-6-4--------| 
A|--------------------------------------------------------------| 
E|--------------------------------------------------------------| 
 
 
E|--4-4-4--5-5-5--9-9-9-----------------------------------------| 
B|--5-5-5--5-5-5--9-9-9--7--7-7-5-5-----------------------------| 
G|--4-4-4--4-4-4--9-9-9---8-8-8-6-4-----------------------------| 
D|-----------------------9--9-9-7(6)----------------------------| 
A|--------------------------------------------------------------| 
E|--------------------------------------------------------------| 
 
 
		todos estan locos... 
E|--------------------------------------------------------------| 
B|--------------------------------------------------------------| 
G|--6-6-6-8---------------------6-6-6-8-8-8--7------------------| 
D|--4-4-4-6---------------------4-4-4-6-6-6--9------------------| 
A|--------------------------------------------------------------| 
E|--------------------------------------------------------------| 
 
 
		Pre-Coro 
E|--------------------------------------------------------------| 
B|--------------------------------------------------------------| 
G|--------------------------------------------------------------| 
D------------------------------11-------------------------------| 
A|--4-4-4-6-6-6-7-7-7-11-11-11--9--11---------------------------| 
E|--2-2-2-4-4-4-5-5-5--9--9--9------9---------------------------| 
 
		 
Coro  
E|--------------------------------------------------------------| 
B|---------------------7----------------------------------------| 
G|---------------9-8-9---9-8------------------------------------| 
D|--9-9-9-9------------------9----------------------------------| 
A|--7-7-7-7-----------------------------------------------------| 
E|--------------------------------------------------------------|         
 
 
E|--------------------------------------------------------------| 
B|-------------------5------5-----------------------------------| 
G|---------------4-6----4-6-------------------------------------| 
D|--9-9-9-9-----------------------------------------------11----| 
A|--7-7-7-7--------------------4-4-4-6-6-6-7-7-7-11-11-11--9--11| 
E|-----------------------------2-2-2-4-4-4-5-5-5--9--9--9------9|         
 
 
E|--------------------------------------------------------------| 
B|---------------------7----------------------------------------| 
G|---------------9-8-9---9-8------------------------------------| 
D|--9-9-9-9------------------9----------------------------------| 
A|--7-7-7-7-----------------------------------------------------| 
E|--------------------------------------------------------------|         
 
 
E|--------------------------------------------------------------| 
B|-------------------5------5-----------------------------------| 
G|---------------4-6----4-6-------------------------------------| 
D|--9-9-9-9-----------------------------------------------11----| 
A|--7-7-7-7--------------------4-4-4-6-6-6-7-7-7-11-11-11--9--11| 
E|-----------------------------2-2-2-4-4-4-5-5-5--9--9--9------9|         
 
 
 
E|--------------------------------------------------------------| 
B|--------------------------------------------------------------| 
G|--------------------------------------------------------------| 
D|--------------------------------------------------------------| 
A|--------2-0----------------2-4-2------------------------------| 
E|--0-2-4-----4-2-0----0-2-4-------0-4--------------------------| 

		  

See also:

tabs Chancho en Piedra - Locura espacial tabs Alvaro Veliz - No Se Vivir tabs Chancho en Piedra - Volantin tabs Alejandro Silva - Er Rock tabs Chancho en Piedra - Lophophora tabs Chancho en Piedra - Niņo peo
e-chords

Other versions:

tabs Chancho en Piedra - Locura espacial
auto scroll beats size up size down change color hide chords drawings
tab show chords e-chords YouTube Clip e-chords hide all tabs e-chords go to top tab

share