Chaka Khan

home > Chaka Khan

Tell Me Something Good Tab

Chaka Khan

Difficulty: ExpertExpert

by PAULLET3

tuner correct add songbook print version text version save to e-mail
chordsukulelecavacokeyboardtabbassdrumsharmonicsflute Guitar Pro
chords

Tell Me Something Good

Year: 2008 - Album: Greatest Hits Live

  		Rufus & Chaka Khan: Tell Me Something Good 

Some of this may be wrong because i just figured this out a few minutes ago and i'm not  
good at tabbing songs but it's my best try so here you go. 

standard tuning 

VERSE: 
e|------------------------------------------------------------------------| 
B|-9--7--5--4--2----------------------------------------------------------| 
G|-9--7--6--4--2--4--2--1-------------------------------------------------| 
D|-7--7--6--4--2--5--4--2-------------------------------------------------| 
A|-7--5--4--2--0--5--4--2----5--------------------------------------------| 
E|----------------3--2--0-------------------------------------------------| X3 


e|----------------------------------------------------------------------------| 
B|----------------------------------------------------------------------------| 
G|-1--4--6--7--8--10--11--12--13----------------------------------------------| 
D|-2--6--7--8--9--11--12--13--14----------------------------------------------| 
A|-2--6--7--8--9--11--12--13--14----------------------------------------------| 
E|-0--4--5--6--7--9---10--11--12----------------------------------------------| 

Weird breathing noises 

Chorus is something like this: 

e|------------------------------------------------------------------------| 
B|----2--2\4--2-----------------------------------------------------------| 
G|-1--2--2\4--2-----------------------------------------------------------| 
D|-2--2-------------------------------------------------------------------| 
A|-2--0-------------------------------------------------------------------| 
E|-0----------------------------------------------------------------------| 

do that like 4 or so times and then it's back to verse, and then another chorus. 

	  

Search Paypal
auto scroll beats size up size down change color hide chords drawings
tab show chords e-chords YouTube Clip e-chords hide all tabs e-chords go to top tab