Chad Vangaalen

Hangmans Son

Chad Vangaalen

tabs

by  JOAOEWERTON

save to print version add songbook text version e-mail correct tuner
chordsukulelecavacokeyboardtabbassdrumsharmonicaflute Guitar Pro
close

there isn't a video lesson for this song

chords

Hangmans Son

	  		Open D. Easy to figure out the hammer-ons, left them out. 

Verse 

d |----------------------------||------| 
A |--3-------3---3----------3--||--2---| 
F#|--1--3----1---3--2---5p3-1--||--1---| 
D |--2--x----2---2--x---x---2--||--2---| 
A |--3--x----3---0--x---x---3--||--2---| 
D |-----3-----------2---3------||------| 

Chorus 

d |-------------------| 
A |--3---3-------3-2--| 
F#|--3---1---3---1-1--| 
D |--2---2---X---2-2--| 
A |--0---3---X---3-2--| 
D |----------3--------| 
		  

See also:

tabs Sum 41 - What we're all about tabs Sum 41 - All Messed Up tabs Sum 41 - Thanks For Nothing tabs Mac Demarco - Dreaming tabs Sum 41 - World War Seven tabs The Weeknd - What You Need
e-chords

Other versions:

tabs Chad Vangaalen - Hangmans Son
auto scroll beats size up size down change color hide chords drawings
tab show chords e-chords YouTube Clip e-chords hide all tabs e-chords go to top tab

share