Centúrias

Duas Rodas (Versão EP Última Noite) Tab

Centúrias

Difficulty: nolevelnolevel

by Gabriel+Fox

tuner correct add songbook print version text version save to e-mail
chordsukulelecavacokeyboardtabbassdrumsharmonicsflute Guitar Pro
close

there isn't a video lesson for this song

request
chords

Duas Rodas (Versão EP Última Noite)

  		Intro:  A5 A5 C5 C5 A5 3x 
 
A5                  C5  A5 
Em alta velocidade, ele parte 
A5                      C5            A5 
Fugindo do lugar comum, enfrentando a escuridão  
 
F5               A5 
Cruzando estradas, ele traça o seu destino  
F5       A5 
Sem medo, sobre duas rodas  
G5              E5 
Sobre duas rodas, sobre duas rodas  
 
 A5 A5 C5 C5 A5  
 
A5                 C5             A5 
Em alta velocidade, o vento corta o seu corpo 
A5                    C5       A5  
Com o destino traçado, ele voa como um corvo  
 
F5               A5 
Sobre duas rodas, ele vive 
F5                   A5  
Do perigo se alimenta  
G5               E5 
Sobre duas rodas, sobre duas rodas  
 
G5               E5 
Sobre duas rodas, sobre duas rodas  
 
 
E ----------------- ----------------- -----------------  
B ----------------- ----------------- -----------------  
G ----------------- ----------------- ----------------- 2x 
D ----------------- ----------------- -----------------  
A ---------3-2----- -------3-2------- ------3-2---5-7--  
E -5-5-3-5----5-5-- -5-3-5----5-5---- -5-3-5----5------  
 
Base Solo:  F5 A5 F5 A5 G5 E5 G5 E5  
 
E -----------------  
B -----------------  
G -----------------  
D -5---------------  
A ---7-6-5---------  
E ---------8-5-3-5-  
 
E ----------------- ----------------- -----------------  
B ----------------- ----------------- -----------------  
G ----------------- ----------------- ----------------- 2x 
D ----------------- ----------------- -----------------  
A ---------3-2----- -------3-2------- ------3-2---5-7--  
E -5-5-3-5----5-5-- -5-3-5----5-5---- -5-3-5----5------  
 
F5                   A5 
Sugando todo o sangue de sua máquina 
F5                   A5  
Ele parte para o fim  
 
G5               E5 
Sobre duas rodas, sobre duas rodas 
G5               E5  
Sobre duas rodas, sobre duas rodas  
G5              E5 
Sobre duas rodas 
 
E -----------------  
B -----------------  
G -----------------  
D -5---------------  
A ---7-6-5---------  
E ---------8-5-3-5-  
 
E -----------------  
B -----------------  
G -----------------  
D -------------7---  
A -------------7---  
E -3-4-5-------5---  

	  

Full key step upFull key step up
Half key step upHalf key step up
Half key step downHalf key step down
Full key step downFull key step down
Search Paypal
auto scroll beats size up size down change color hide chords drawings
tab show chords e-chords YouTube Clip e-chords hide all tabs e-chords go to top tab

share with facebook