Celine Dion

home > Celine Dion

My Heart Will Go On Tab

Celine Dion

Difficulty: BeginnerBeginner

by amy3971

tuner correct add songbook print version text version save to e-mail
chordsukulelecavacokeyboardtabbassdrumsharmonicsflute Guitar Pro
chords

My Heart Will Go On

Year: 1997 - Album: These Are Special Times

  		
   
|1-1-1-0-1-1-0-1-3-5-3-1-1-1-0-1-1-----------|   
|----------------------------------1---------|   
|--------------------------------------------| x2   
|--------------------------------------------|   
|--------------------------------------------|   
|--------------------------------------------|   
   
|1-3---8-6-5-3-5-6-5-3-1-0-1-0----------------|   
|----1-------------------------3--------------|   
|---------------------------------------------| x2    
|---------------------------------------------|   
|---------------------------------------------|   
|---------------------------------------------|   
   
|-----0------5-3-2-0--2-3-2-0-----------------0-2-0----|   
|-3----------------------------3-2-3--3-2-3-3--------3-|   
|---------2--------------------------------------------|     
|------------------------------------------------------|   
|------------------------------------------------------|   
|------------------------------------------------------|   


	  

Search Paypal
auto scroll beats size up size down change color hide chords drawings
tab show chords e-chords YouTube Clip e-chords hide all tabs e-chords go to top tab