Cayetana

Serious Things Are Stupid

Cayetana

tabs

by  EDSOOLIVEIRA

save to print version add songbook text version e-mail correct tuner
chordsukulelecavacokeyboardtabbassdrumsharmonicaflute Guitar Pro
close

there isn't a video lesson for this song

chords

Serious Things Are Stupid

	  		

Main Riff (Intro, Verse) 
e|---------------------------------------------------------------------------| 
B|---------------------------------------------------------------------------| 
G|--7----6----4--------------------------------------------------------------| 
D|--7----7----4----5---------------------------------------------------------| 
A|--5----4----2----5---------------------------------------------------------| 
E|-----------------3---------------------------------------------------------| 

Other chord riff (Chorus, filler) 
e|---------------------------------------------------------------------------| 
B|---------------------------------------------------------------------------| 
G|---------------------------------------------------------------------------| 
D|--7---------5--------------------------------------------------------------| 
A|--7---------5--------------------------------------------------------------| 
E|--5---------3--------------------------------------------------------------| 

Bridge/Interlude part (From about 1:45-1:56) Those are elevens not ones 
e|---------------------------------------------------------------------------| 
B|---------------------------------------------------------------------------| 
G|--6/7--7/11-11--11/9-9--9/11-11--11/7-7--7/9-9--9/7-7-7-7-7-7/11-----------| 
D|---------------------------------------------------------------------------| 
A|---------------------------------------------------------------------------| 
E|---------------------------------------------------------------------------| 
		  

See also:

tabs Ira! - Eu Quero Sempre Mais (Com Pitty, intro) tabs Deep Purple - Sometimes a Feel Like Screaming tabs Deep Purple - Money Talks tabs Albert Hammond Jr - St. Justice tabs Ira! - Tarde Vazia (Acústico) tabs Deep Purple - Smoke On The Water
e-chords

Other versions:

tabs Cayetana - Serious Things Are Stupid
auto scroll beats size up size down change color hide chords drawings
tab show chords e-chords YouTube Clip e-chords hide all tabs e-chords go to top tab

share