Catfish And The Bottlemen

home > Catfish And The Bo...

Kathleen Tab

Catfish And The Bottlemen

Difficulty: ExpertExpert

by tarikike

tuner correct add songbook print version text version save to e-mail
chordsukulelecavacokeyboardtabbassdrumsharmonicsflute Guitar Pro
chords

Kathleen

  		

Intro: 

e|----------------------| 
B|-10----12-----7-------| 
G|-12b14-14b16--9b11r9--| 
D|----------------------| 
A|----------------------| 
E|----------------------| 

Verse: 

e|---------------------------------------------------------------------| 
B|-8-8-8-8-8-8-8-8-7-7-7-7-7-7-7-7-7-7-7-7-7-7-7-7-5-5-5-5-5-5-5-5-----| 
G|-7-7-7-7-7-7-7-7-7-7-7-7-7-7-7-7-7-7-7-7-7-7-7-7-7-7-7-7-7-7-7-7-----| 
D|---------------------------------------------------------------------| 
A|---------------------------------------------------------------------| 
E|---------------------------------------------------------------------| 
  G5               D5                B5            A5 

This section isn't note for note, but rather the shapes around which the melody in the 
right ear are improvised. You can play this and have it sound fine, or listen for the 
little intricacies. 

Bridge: 

e|-----------------------------------------------------------------------| 
B|-----7-7---------7-7-----------10-10---------------------------7-------| 
G|---7-----7-----7-----7-------9-------9----9b11-(11)-(11)-(11)-r9-7-9---| 
D|-9---------9-7---------7--11-----------11------------------------------| 
A|-----------------------------------------------------------------------| 
E|-----------------------------------------------------------------------| 
  G5           D5           A5              B5          A5 

e|---------------------------------------------------------------------| 
B|-----7-7---------7-7-----------10---10-------------10---12-10--------| 
G|---7-----7-----7-----7-------9----9----9----9----9----9-------9------| 
D|-9---------9-7---------7--11-------------11---11-----------------11--| 
A|---------------------------------------------------------------------| 
E|---------------------------------------------------------------------| 
  G5           D5           A5 

The notes in brackets indicate that the note is being held at that pitch - hold the bend 
on 9 (E) at the pitch of 11 (F#) and then play both the G and B strings when you 
release the bend to get the discord Catfish get. 

Chorus: 

e|---------------------------------------------------------------------| 
B|-7-7-7-7-7-7-7--3-3-3--5-5-5---x-7-x-7-x-7-x-7--3-3-3-5-5-5----------| 
G|-7-7-7-7-7-7-7--4-4-4--6-6-6---x-7-x-7-x-7-x-7--4-4-4-6-6-6----------| 
D|-9-9-9-9-9-9-9--5-5-5--7-7-7---x-9-x-9-x-7-x-9--5-5-5-7-7-7----------| 
A|---------------------------------------------------------------------| 
E|---------------------------------------------------------------------| 
  Bm5            G5      A5     Bm5               G5    A5 

e|---------------------------------------------------------------------| 
B|-x-7-x-7-x-7-x-7--3-3-3-5-5-5---x-7-x-7-x-7-x-7--3-3-3-5-5-5---------| 
G|-x-7-x-7-x-7-x-7--4-4-4-6-6-6---x-7-x-7-x-7-x-7--4-4-4-6-6-6---------| 
D|-x-9-x-9-x-7-x-9--5-5-5-7-7-7---x-9-x-9-x-9-x-9--5-5-5-7-7-7---------| 
A|---------------------------------------------------------------------| 
E|---------------------------------------------------------------------| 
  Bm5               G5    A5      Bm5              G5    A5 

The first half of the Chorus is the above, with the guitar in the right ear tabbed and 
the guitar in the left ear playing the chords underneath. The 7 in the root of the 
syncopated Bm is not a typo, listen carefully! In the second half of the Chorus, the  
same chords are played by both guitars without the scratch rhythm, and ends abruptly on the  
first A5 

Outro: 

e|-----------------------------------| 
B|-x-7-7-7-x-7-7-7-x-7-7-7-x-5-5-5---| 
G|-x-------x-------x-7-7-7-x-6-6-6---| 
D|-x-7-7-7-x-7-7-7-x-9-9-9-x-7-7-7---| 
A|-x-5-5-5-x-5-5-5-x-9-9-9-x-7-7-7---| x3 
E|-----------------------------------| 

e|-----------------------------------| 
B|-x-7-7-7-x-8-8-10-x-7-7-7-x--------| 
G|-x-------x--------x-7-7-7-x-6-6----| 
D|-x-7-7-7-x-9-9-9--x-9-9-9-x-7-7----| 
A|-x-------x--------x-9-9-9-x-7-7----| x1 
E|----------------------------5-5----| 

Structure: 

Intro 
Verse 
Bridge 
Chorus 
Verse 
Bridge 
Chorus 
Outro 

Lyrics: 

You're simpatico 
And of all the lift homes and all the mi­xed feelings 
You're cuts above 
And you don't own worries or a chest ful­l of heartache. 
Yes I know 
That I'll never work out exactly how you­'re thinking 
But let me know when I'm needed home. 

And I'd come 
You can leather me with your lips 

I've gotta give it to you 
You give me problems 
When you are not in the mood 
I've gotta give it to you 
You give me problems 
And made me give in to you 
Her dealer hates me you know 
He used to see her but she sold 
Him off on down the river. 

It's impratical 
To go out and catch a death with a dress fit for the summer 
So she don't 
Instead she calls me up with a head full of filth an' 
Yes I know 
I'll never acquiesce anything I'm thinki­ng 
But let me know when I'm needed home. 

And I'd come 
You can leather me with your lips 

I've gotta give it to you 
You give me problems 
When you are not in the mood 
I've gotta give it to you 
You give me problems 
And made me give in to you 
Her dealer hates me you know 
He used to see her but she sold 
Him off on down the river. 
	  

Full key step upFull key step up
Half key step upHalf key step up
Half key step downHalf key step down
Full key step downFull key step down
Search Paypal
auto scroll beats size up size down change color hide chords drawings
tab show chords e-chords YouTube Clip e-chords hide all tabs e-chords go to top tab