Catfish And The Bottlemen

home > Catfish And The Bo...

Hourglass Tab

Catfish And The Bottlemen

Difficulty: nolevelnolevel

by bombaXXX

tuner correct add songbook print version text version save to e-mail
chordsukulelecavacokeyboardtabbassdrumsharmonicsflute Guitar Pro
chords

Hourglass

  		

Tuning: Standard 

Intro and Verses: 

e|--------------------------------------------| 
B|--------------------------------------------| 
G|--------------------------------------------| 
D|--11--11-11-11--11-11--------8-8-8-8--------| 
A|--9---9--9--9---9--9--x--x---9-9-9-9--------| 
E|----------------------9--11-----------------| 

Bridge 

e|-------------------------------------| 
B|--------------11---------------------| 
G|--9-----------11---------------------| 
D|--11--x9ish---11--x7ish--------------| 
A|--11----------9----------------------| 
E|--9----------------------------------| 

************************************ 

| /   slide up 
| \   slide down 
| h   hammer-on 
| p   pull-off 
| ~   vibrato 
| +   harmonic 
| x   Mute note 
| b   Bend 
| pb  Pre-bend 
| br  Bend release 
| pbr Pre-bend release 
| brb Bend release bend 

************************************ 
	  

Search Paypal
auto scroll beats size up size down change color hide chords drawings
tab show chords e-chords YouTube Clip e-chords hide all tabs e-chords go to top tab