Carus

Ain't No Crime

Carus

tabs

save to print version add songbook text version e-mail correct tuner
chordsukulelecavacokeyboardtabbassdrumsharmonicaflute Guitar Pro
close

there isn't a video lesson for this song

chords

Ain't No Crime

	  		Main riff: 
 
e|--------|--------| 
B|--------|--------| 
G|-----4--|-----3--| 
D|--3-----|--2-----| 
A|--------|--------| 
E|--------|--------| 
 
Alternate between the notes... listen to the track. 
 
Solo (in G major): 
 
This isn't on the guitar so it's hard to get it right. This is an outline only, and a bit of a dog's breakfast at that. 
 
e|-3--3x-3-3x-------3-5-3h5p3----------3-5--3-----------------/3-3-3------| 
B|-3--3x-3-3x-3-3-5--------------3-3-5--------5-3-3h5p3----/5-------------| 
G|-4--4x-4-4x-------------------------------------------4-----------------| 
D|-5--5x-5-5x-------------------------------------------------------------| 
A|------------------------------------------------------------------------| 
E|------------------------------------------------------------------------| 
 
e|-------------------10----10-12---15-12-----------------------12---------| 
B|-8-8-8vvv-8-8-8/12----12---------------15-12-----------------12-15-12---| 
G|---------------------------------------------14-12-14-12--------14-12---| 
D|---------------------------------------------------------14b------------| 
A|------------------------------------------------------------------------| 
E|------------------------------------------------------------------------| 
 
e|------------------------------------------------------------------------| 
B|------------------------------------------------------------------------| 
G|-12-12h14p12----12------------------------------------------------------| 
D|-------------14----12b-9----9h12---------{unfinished}-------------------| 
A|-------------------------12---------------------------------------------| 
E|------------------------------------------------------------------------| 
 
v = vibrato 
b = bend 
		  

Full key step upFull key step up
Half key step upHalf key step up
Half key step downHalf key step down
Full key step downFull key step down
hide glossary

See also:

tabs Beaverloop - Condesending tabs Baby Animals - One Word tabs The Beautiful Girls - Morning Sun tabs Hillsong Music Australia - jesus I long tabs Hillsong Music Australia - Song of Freedom tabs INXS - Need you tonight
e-chords

Other versions:

tabs Carus - Ain't No Crime
auto scroll beats size up size down change color hide chords drawings
tab show chords e-chords YouTube Clip e-chords hide all tabs e-chords go to top tab

share