Carter Burwell

Bella's Lullaby Tab

Carter Burwell

Difficulty: ExpertExpert

by MelissaAndrade

tuner correct add songbook print version text version save to e-mail
chordsukulelecavacokeyboardtabbassdrumsharmonicsflute Guitar Pro
close

there isn't a video lesson for this song

chords

Bella's Lullaby

(Carter Burwell)

  		
E|-2-------2-------3-------3-------|-2-------2-------0-------0-------| 
B|-3-------3-------3-------3-------|-3-------3-------3-------3-------| 
G|-2-------2-------3-------3-------|-2-------2-------0-------0-------| 
D|-----0-------0-------0-------0---|-----0-------0-------0-------0---| 
A|---------------------------------|---------------------------------| 
E|---------------------------------|---------------------------------| 



E|-2-------2-------3-------3-------|-5-------5-------3-------3-------| 
B|-3-------3-------3-------3-------|-3-------3-------3-------3-------| 
G|-2-------2-------3-------3-------|-5-------5-------3-------3-------| 
D|-----0-------0-------0-------0---|-----0-------0-------0-------0---| 
A|---------------------------------|---------------------------------| 
E|---------------------------------|---------------------------------| 



E|-2-------2-------3-------2---0---|-2-------2-------3-------3-------| 
B|-3-------3-------3---------------|-3-------3-------3-------3-------| 
G|-2-------2-------3---------------|-5-------5-------3-------3-------| 
D|-----0-------0-------0-------0---|-----0-------0-------0-------0---| 
A|---------------------------------|---------------------------------| 
E|---------------------------------|---------------------------------| 



E|-2-------2-------0-------0-------|-0-------0-----------------------| 
B|-3-------3-------3-------3-------|-----------------3-------3-------| 
G|-0-------0-------0-------0-------|-0-------0-------0-------0-------| 
D|---------------------------------|---------------------------------| 
A|-----3-------3-------3-------3---|---------------------------------| 
E|---------------------------------|-----1-------1-------1-------3---| 



E|---------------------------------|---------------------------------|| 
B|-5--3--0---------5--3--0---------|-5--3--0---------5--3--2---------|| 
G|-4-------2-------4-------2-------|-4-------2-------4-------2-------|| 
D|---------------------------------|---------------------------------|| 
A|-0-----------0---0---------------|-0-----------0---0---------------|| 
E|-----------------------------3---|-----------------------------3---|| 


E|| |-----6---5---3-----------3-------|---------------------------------| 
B|| |-----------------5---3-----------|-------------------------0---1---| 

G||4|-4-----------2---------------4---|-2-------------------------------| 
D||4|-2-----------2-------------------|-2-----------2-------------------| 

A|| |-0-----------0-------------------|-0-----------0-------------------| 
E|| |---------------------------------|---------------------------------| 


E|---------------------------------|---------------------------------| 
B|---------------------------------|-0-------------------------------| 
G|-0-----------0-----------0---2---|-------------2-------------------| 
D|-0-----------2-------------------|-2-----------2-------------------| 
A|-3-----------3-------------------|-0-----------0-------------------| 
E|---------------------------------|---------------------------------| 



E|-----6---5---3-----------3-------|---------------------------------| 
B|-----------------5---3-----------|-------------------------0---1---| 
G|-4-----------2---------------4---|-2-------------------------------| 
D|-2-----------2-------------------|-2-----------2-------------------| 
A|-0-----------0-------------------|-0-----------0-------------------| 
E|---------------------------------|---------------------------------| 



E|---------2---3-------------------|---------3---5---------------7---| 
B|-------------------------4---5---|---------------------8---10------| 
G|-0-----------0-------------------|-4-----------2-------------------| 
D|-0-----------2-------------------|-2-----------2-------------------| 
A|-3-----------3-------------------|-0-----------0-------------------| 
E|---------------------------------|---------------------------------| 



E|-----14------7---------------0---|-----14------7---------------7---| 
B|---------------------8---7-------|---------------------7---8-------| 
G|-0-----------0-------------------|-0-----------0-------------------| 
D|-0-----------0-------------------|---------------------------------| 
A|---------------------------------|---------------------------------| 
E|---------------------------------|-8-----------8-------------------| 



E|-----14--12--10------8---7---5---|-----3---2-----------------------| 
B|---------------------------------|-------------3-----------0-------| 
G|-0-----------0-------------------|-0-----------0-------------------| 
D|-0-----------0-------------------|---------------------------------| 
A|---------------------------------|-3-----------3-------------------| 
E|---------------------------------|---------------------------------| 



E|-----6---5---3-----------3-------|---------------------------------| 
B|-----------------5---3-----------|---------------------------------| 
G|-4-----------2---------------4---|-2-------------------------------| 
D|-2-----------2-------------------|-2-----------2-------------------| 
A|-0-----------0-------------------|-0-----------0-------------------| 
E|---------------------------------|---------------------------------| 



E|---------------------2---2---5---|-7---------------------------3-5-| 
B|---------------------------------|-5-------------------------------| 
G|-------------5---5---------------|-4-------------------------------| 
D|-----4---4---0-------------------|---------------------------------| 
A|-5-----------0-------------------|---------------------------------| 
E|-5-------------------------------|-0-------------------------------| 



E|-7-------------------------------|---------------------------------| 
B|-0-------------------0---0-------|-----------------0---0---3---3---| 
G|-0---7---7---5---5-----------2---|---------0---0-------------------| 
D|-0-----------0-------------------|-2---2-------2-------------------| 
A|---------------------------------|-3-----------3-------------------| 
E|-------------3-------------------|---------------------------------| 



E|---------------------------------|-------------------------0---0---| 
B|-----3---3---1---1---0---0-------|-----------------0----0----------| 
G|-2-----------0---------------2---|---------0---0-------------------| 
D|-0-----------0-------------------|-2---2-------2-------------------| 
A|---------------------------------|-3-----------3-------------------| 
E|-3-----------3-------------------|---------------------------------| 



E|-2-------------------------------|-----------------0---0---5---5---| 
B|-----3---3---1---1---0---0-------|---------1---1-------------------| 
G|-0---0---0-------------------2---|-0---0-----------0---0---5---5---| 
D|-0-----------2---2---0---0-------|---------2---2-------------------| 
A|-----------------------------3---|-3---3-------3-------------------| 
E|-3-----------3-------------------|---------------------------------| 



E|-7-------------------------------|-----------------0---0---5---5---| 
B|-3---3---3---1---1---0---0-------|---------1---1-------------------| 
G|-----------------------------2---|-0---0-----------0---0---5---5---| 
D|-----5---5---2---2---0---0-------|---------2---2-------------------| 
A|-----------------------------3---|-3---3-------3-------------------| 
E|-3-----------3-------------------|---------------------------------| 



E|-----5---5---3---0---0-----------|---------------------------------| 
B|-1---------------1-------3---0---|---------------------------------| 
G|-2---------------0---------------|-2-------------------------------| 
D|---------------------------------|-0-----------0-------------------| 
A|---------------------------------|-0-----------0-------------------| 
E|-1---------------3---------------|---------------------------------| 



E|-----0---0---3---3---7---7---10--|-10------------------------------| 
B|-------------0---0---------------|---------------------------------| 
G|-----0---0-----------7---7---11--|-11------------------------------| 
D|-----------------0---------------|-0-----------0-------------------| 
A|-3-------------------------------|-0-----------0-------------------| 
E|-----------------3---------------|---------------------------------| 



E|------------------|-----------------------------3-5------| 
B|---------------------------|-----------------------------| 
G|---------------------------------|-----------------------| 
D|---------------------------------|-0---------------------| 
A|---------------------------------|-0---------------------| 
E|-1---------------3---------------|-----------------------| 



E|-7-------------------------------|-------------------------0---0---| 
B|-0-------------------0---0-------|-----------------0---0-----------| 
G|-0---7---7---5---5-----------2---|---------0---0-------------------| 
D|-0-----------0-------------------|-2---2-------2-------------------| 
A|---------------------------------|-3-----------3-------------------| 
E|-------------3-------------------|---------------------------------| 



E|-2-------------------------------|-----------------0---0---5---5---| 
B|-----3---3---1---1---0---0-------|---------1---1-------------------| 
G|-----0---0-------------------2---|-0---0-----------0---0---5---5---| 
D|-0-----------2---2---0---0-------|---------2---2-------------------| 
A|-----------------------------3---|-3---3-------3-------------------| 
E|-3-----------3-------------------|---------------------------------| 



E|-7-------------------------------|-----------------0---0---5---5---| 
B|-3---3---3---1---1---0---0-------|---------1---1-------------------| 
G|-----------------------------2---|-0---0-----------0---0---5---5---| 
D|-----5---5---2---2---0---0-------|---------2---2-------------------| 
A|-----------------------------3---|-3---3-------3-------------------| 
E|-3-----------3-------------------|---------------------------------| 



E|-7-------------------------------| 
B|-5-------------------------------| 
G|-4-------------------------------| 
D|---------------------------------| 
A|---------------------------------| 
E|-0-------------------------------| 
	  

auto scroll beats size up size down change color hide chords drawings
tab show chords e-chords YouTube Clip e-chords hide all tabs e-chords go to top tab

share with facebook

Search Paypal