Carnifex

The Scope Of Obsession

Carnifex

tabs

by  ALEFFEDERICO

save to print version add songbook text version e-mail correct tuner
chordsukulelecavacokeyboardtabbassdrumsharmonicaflute Guitar Pro
close

there isn't a video lesson for this song

chords

The Scope Of Obsession

	  		



* 7 string isn't necesarry 



0:00-0:09 

guitar 1 
E |------------------------------------------------------------------| 
B |------------------------------------------------------------------| 
G |------------------------------------------------------------------| 
D |---------8-8-8-8-------------------------8-8-8-8------------------| 
A |------------------------------------------------------------------| 
E |-0---------------0-------4-4-4-4-0---------------0---1---2---1----| 
A |-0---------------0---------------0---------------0---1---2---1----| 

guitar 2 
E |------------------------------------------------------------------| 
B |------------------------------------------------------------------| 
G |------------------------------------------------------------------| 
D |------------------------------------------------------------------| 
A |------------------------------------------------------------------| 
E |-0-------/6------0-------/4------0-------/6------0---1---2---1----| 
A |-0---------------0---------------0---------------0---1---2---1----| 


guitar 1 
E |------------------------------------------------------------------| 
B |------------------------------------------------------------------| 
G |------------------------------------------------------------------| 
D |---------8-8-8-8--------------------------------------------------| 
A |------------------------------------------------------------------| 
E |-0---------------0-------4-4-4-4-22222222222222225555444411111111-| 
A |-0---------------0------------------------------------------------| 

guitar 2 
E |------------------------------------------------------------------| 
B |------------------------------------------------------------------| 
G |------------------------------------------------------------------| 
D |------------------------------------------------------------------| 
A |------------------------------------------------------------------| 
E |-0-------/6------0-------/4---------------------------------------| 
A |-0---------------0---------------55555555555555559999888844444444-| 



0:09-0:17 

guitar 1 
E |------------------------------------------------------------------| 
B |------------------------------------------------------------------| 
G |------------------------------------------------------------------| 
D |---------8-8-8-8-------------------------8-8-8-8------------------| 
A |------------------------------------------------------------------| 
E |-5-5-5-5---------5-5-5-5-4-4-4-4-5-5-5-5---------0---1---2---1----| 
A |-------------------------------------------------0---1---2---1----| 

guitar 2 
E |------------------------------------------------------------------| 
B |------------------------------------------------------------------| 
G |------------------------------------------------------------------| 
D |------------------------------------------------------------------| 
A |------------------------------------------------------------------| 
E |-0-------/6------0-------/4------0-------/6------0---1---2---1----| 
A |-0---------------0---------------0---------------0---1---2---1----| 

guitar 3 
E |------------------------------------------------------------------| 
B |------------------------------------------------------------------| 
G |-----------------------------------------9-9-9-8------------------| 
D |-------------------------------------------------11--10--9---10---| 
A |------------------------------------------------------------------| 
E |------------------------------------------------------------------| 
A |------------------------------------------------------------------| 
                                              

guitar 1 
E |------------------------------------------------------------------| 
B |------------------------------------------------------------------| 
G |------------------------------------------------------------------| 
D |---------8-8-8-8--------------------------------------------------| 
A |------------------------------------------------------------------| 
E |-5-5-5-5---------5-5-5-5-4-4-4-4-2222222222222222555544441--------| 
A |------------------------------------------------------------------| 

guitar 2 
E |------------------------------------------------------------------| 
B |------------------------------------------------------------------| 
G |------------------------------------------------------------------| 
D |------------------------------------------------------------------| 
A |------------------------------------------------------------------| 
E |-0-------/6------0-------/4---------------------------------------| 
A |-0---------------0---------------5555555555555555999988884--------| 



0:17-0:26 

guitar 1 
E |------------------------------------------------------------------| 
B |------------------------------------------------------------------| 
G |------------------------------------------------------------------| 
D |---------8-8-8-8-------------------------8-8-8-8------------------| 
A |------------------------------------------------------------------| 
E |-5-5-5-5---------5-5-5-5-4-4-4-4-5-5-5-5---------0---1---2---1----| 
A |-------------------------------------------------0---1---2---1----| 

guitar 2 
E |------------------------------------------------------------------| 
B |------------------------------------------------------------------| 
G |---------6-6-6-6-------------------------6-6-6-6------------------| 
D |------------------------------------------------------------------| 
A |-3-3-3-3---------3-3-3-3-2-2-2-2-3-3-3-3--------------------------| 
E |-------------------------------------------------0---1---2---1----| 
A |-------------------------------------------------0---1---2---1----| 


guitar 1 
E |------------------------------------------------------------------| 
B |------------------------------------------------------------------| 
G |------------------------------------------------------------------| 
D |---------8-8-8-8--------------------------------------------------| 
A |------------------------------------------------------------------| 
E |-5-5-5-5---------5-5-5-5-4-4-4-4-22222222222222225555444411111111-| 
A |------------------------------------------------------------------| 

guitar 2 
E |------------------------------------------------------------------| 
B |------------------------------------------------------------------| 
G |---------6-6-6-6--------------------------------------------------| 
D |------------------------------------------------------------------| 
A |-3-3-3-3---------3-3-3-3-2-2-2-2----------------------------------| 
E |------------------------------------------------------------------| 
A |---------------------------------55555555555555559999888844444444-| 



0:26-0:42 

*maybe some slightly powerchords 

guitar 1 
E |------------------------------------------------------------------| 
B |------------------------------------------------------------------| 
G |------------------------------------------------------------------| 
D |------------------------------------------------------------------| 
A |-------------------------------------------------2----------------| 
E |(0)-(0)-(1)-----(1)-(4)-(1)-----(1)-(0)-(1)--------------3--------| 
A |-0---0---1-------1---4---1-------1---0---1------------------------| 
                                                    p.h.    p.h. 
guitar 2 
E |------------------------------------------------------------------| 
B |------------------------------------------------------------------| 
G |------------------------------------------------------------------| 
D |------------------------------------------------------------------| 
A |-------------------------------------------------2----------------| 
E |(0)-(0)-(1)-----(1)-(4)-(1)-----(1)-(0)-(1)--------------3--------| 
A |-0---0---1-------1---4---1-------1---0---1------------------------| 
                                                    p.h.    p.h. 

guitar 1 
E |------------------------------------------------------------------| 
B |------------------------------------------------------------------| 
G |------------------------------------------------------------------| 
D |------------------------------------------------------------------| 
A |------------------------------------------------------------------| 
E |(0)-(0)-(1)-----(1)-(4)-(1)------55555555--------44444444---------| 
A |-0---0---1-------1---4---1---------------88888888--------77777777-| 
                                                   
guitar 2 
E |------------------------------------------------------------------| 
B |------------------------------------------------------------------| 
G |------------------------------------------------------------------| 
D |------------------------------------------------------------------| 
A |------------------------------------------------------------------| 
E |(0)-(0)-(1)-----(1)-(4)-(1)------22222222--------11111111---------| 
A |-0---0---1-------1---4---1---------------55555555--------44444444-| 
                                                   


0:42-0:59 

guitar 1 
E |------------------------------------------------------------------| 
B |------------------------------------------------------------------| 
G |------------------------------------------------------------------| 
D |------------------------------------------------------------------| 
A |-6666----666666666666----6666----6666----666677776666-------------| 
E |-----4444------------4444----4444----4444------------777766667777-| 
A |------------------------------------------------------------------| 

guitar 2 
E |------------------------------------------------------------------| 
B |------------------------------------------------------------------| 
G |------------------------------------------------------------------| 
D |------------------------------------------------------------------| 
A |-3333----333333333333----3333----3333----333344443333-------------| 
E |-----1111------------1111----1111----1111------------444433334444-| 
A |------------------------------------------------------------------| 


guitar 1 
E |------------------------------------------------------------------| 
B |------------------------------------------------------------------| 
G |------------------------------------------------------------------| 
D |-----------------------------------------666677776666-------------| 
A |-6666----666666666666----6666----6666----------------77776666-----| 
E |-----4444------------4444----4444----4444--------------------7777-| 
A |------------------------------------------------------------------| 

guitar 2 
E |------------------------------------------------------------------| 
B |------------------------------------------------------------------| 
G |------------------------------------------------------------------| 
D |-----------------------------------------333344443333-------------| 
A |-3333----333333333333----3333----3333----------------44443333-----| 
E |-----1111------------1111----1111----1111--------------------4444-| 
A |------------------------------------------------------------------| 



0:59-1:01 

guitar 1 
E |----------------------------------| 
B |----------------------------------| 
G |----------------------------------| 
D |----------------------------------| 
A |----------------------------------| 
E |-----------------------------1----| 
A |-------------------------1p0------| 

guitar 2 
E |----------------------------------| 
B |----------------------------------| 
G |----------------------------------| 
D |----------------------------------| 
A |----------------------------------| 
E |-1---0---4---3---1---0-------1----| 
A |-1---0---4---3---1---0---1p0------| 



1:01-1:18 

both guitars 
E |------------------------------------------------------------------| 
B |------------------------------------------------------------------| 
G |------------------------------------------------------------------| 
D |------------------------------------------------------------------| 
A |------------------------------------------------------------------| 
E |-1---0---4---3---1---0-------1---1---0---4---3-------1-------4----| 
A |-1---0---4---3---1---0---1p0-----1---0---4---3---1p0-----1p0------| 



1:18-1:22 

guitar 1 
E |------------------------------------------------------------------| 
B |------------------------------------------------------------------| 
G |------------------------------------------------------------------| 
D |------------------------------------------------------------------| 
A |------------------------------------------------------------------| 
E |-0---------------1------------------------------------------------| 
A |-0---------------1----------------3-3-3-3-3-3-3-3-2-2-2-2-2-2-2-2-| 
         
guitar 2 
E |------------------------------------------------------------------| 
B |------------------------------------------------------------------| 
G |------------------------------------------------------------------| 
D |---------------------------------1010101010101010-9-9-9-9-9-9-\---| 
A |------------------------------------------------------------------| 
E |-0---------------1---/---8----------------------------------------| 
A |-0---------------1---/---8----------------------------------------| 


guitar 1 
E |------------------------------------------------------------------| 
B |------------------------------------------------------------------| 
G |------------------------------------------------------------------| 
D |------------------------------------------------------------------| 
A |------------------------------------------------------------------| 
E |-0---------------1------------------------------------------------| 
A |-0---------------1----------------5h8p5h8p5h8p5h8-4h7p4h7p4h7p4h7-| 
         
guitar 2 
E |----------------------------------7-7-7-7-7-7-7-7-6-6-6-6-6-6-\---| 
B |------------------------------------------------------------------| 
G |------------------------------------------------------------------| 
D |------------------------------------------------------------------| 
A |-----------------1-------8----------------------------------------| 
E |-0---------------1---/---8----------------------------------------| 
A |-0---------------1---/---8----------------------------------------| 



1:22-1:25 

guitar 1 
E |----------------------------------------------------------------------| 
B |----------------------------------------------------------------------| 
G |----------------------------------------------------------------------| 
D |----------------------------------------------------------------------| 
A |----------------------------------------------------------------------| 
E |-3h6p3--2h5p2----------------------3h6p3--2h5p2-----------------------| 
A |----------------------------------------------------------------------| 

guitar 2 
E |----------------------------------------------------------------------| 
B |----------------------------------------------------------------------| 
G |----------------------------------------------------------------------| 
D |----------------------------------------------------------------------| 
A |----------------------------------------------------------------------| 
E |-3h6p3--2h5p2-0--3--2--0--3--2--3--3h6p3--2h5p2-0--3--2--0--3--2--3---| 
A |--------------0--3--2--0--3--2--3---------------0--3--2--0--3--2--3---| 



1:25-1:38 

both guitars 
E |-----------------------------------------------------------------------| 
B |-----------------------------------------------------------------------| 
G |-----------------------------------------------------------------------| 
D |-----------------------------------------------------------------------| 
A |-----------------------------------------------------------------------| 
E |-8--------8------------------------------------------4--------4--------| 
A |----0--0-----0--0--0--0--0--0h5h7--8--0--0--0--0--0-----0--0-----8--7--| 


E |-----------------------------------------------------------------------| 
B |-----------------------------------------------------------------------| 
G |-----------------------------------------------------------------------| 
D |-----------------------------------------------------------------------| 
A |-----------------------------------5--5--5--5-----------3--3--2--2--2--| 
E |-8--------8-----------------7h8p7-(7)(7)(7)(7)---------(5)(5)(4)(4)(4)-| 
A |----0--0-----0--0--0--0--0---------------------0--0--0-----------------| 



1:38-1:51 

both guitars 
E |------------------------------------------------------------------------| 
B |------------------------------------------------------------------------| 
G |------------------------------------------------------------------------| 
D |------------------------------------------------------------------------| 
A |------------------------------------------------------------------------| 
E |----------1-----------------3-----------------1-------------------------| 
A |-0--2--3-----3--2--0--2--3-----3--2--0--2--3-----3--2--5--3--2--3--2--0-| 


E |----------------------------------------------------------------------------| 
B |----------------------------------------------------------------------------| 
G |----------------------------------------------------------------------------| 
D |----------------------------------------------------------------------------| 
A |----------------------------------------------------------------------------| 
E |----------1-----------------3-----------------1--------5h8--------4h7-------| 
A |-0--2--3-----3--2--0--2--3-----3--2--0--2--3-----3--2-------5--5-------4--4-| 



1:51-1:53 

both guitars 
E |------------------------------------------------------------------| 
B |------------------------------------------------------------------| 
G |------------------------------------------------------------------| 
D |------------------------------------------------------------------| 
A |------------------------------------------------------------------| 
E |-5h8--------4h7--------5h8--------4h7--------3h6--------2h5-------| 
A |------5--5-------4--4-------5--5-------4--4-------3--3-------2--2-| 



2:02-2:10 

guitar 1 
E |------------------------------------------------------------------| 
B |------------------------------------------------------------------| 
G |------------------------------------------------------------------| 
D |---------8-8-8-8-------------------------8-8-8-8------------------| 
A |------------------------------------------------------------------| 
E |-5-5-5-5---------5-5-5-5-4-4-4-4-5-5-5-5---------0---1---2---1----| 
A |-------------------------------------------------0---1---2---1----| 

guitar 2 
E |------------------------------------------------------------------| 
B |------------------------------------------------------------------| 
G |---------6-6-6-6-------------------------6-6-6-6------------------| 
D |------------------------------------------------------------------| 
A |-3-3-3-3---------3-3-3-3-2-2-2-2-3-3-3-3--------------------------| 
E |-------------------------------------------------0---1---2---1----| 
A |-------------------------------------------------0---1---2---1----| 


guitar 1 
E |------------------------------------------------------------------| 
B |------------------------------------------------------------------| 
G |------------------------------------------------------------------| 
D |---------8-8-8-8--------------------------------------------------| 
A |----------------------------------------------------------2~~-----| 
E |-5-5-5-5---------5-5-5-5-4-4-4-4-222222222222222255554444---------| 
A |------------------------------------------------------------------| 
                                                            p.h. 
guitar 2 
E |------------------------------------------------------------------| 
B |------------------------------------------------------------------| 
G |---------6-6-6-6--------------------------------------------------| 
D |------------------------------------------------------------------| 
A |-3-3-3-3---------3-3-3-3-2-2-2-2----------------------------------| 
E |------------------------------------------------------------------| 
A |---------------------------------55555555555555559999888844444444-| 



2:28-2:36 

both guitars 
E |---------------------------------| 
B |---------------------------------| 
G |---------------------------------| 
D |---------------------------------| 
A |---------------------------------| 
E |-0-----0-----0-----0-----0---0---| 
A |-0-----0-----0-----0-----0---0---| 


E |---------------------------------| 
B |---------------------------------| 
G |---------------------------------| 
D |---------------------------------| 
A |---------------------------------| 
E |-0-----0-----0-----0---0-0-0-0---| 
A |-0-----0-----0-----0---0-0-0-0---| 
        

E |---------------------------------| 
B |---------------------------------| 
G |---------------------------------| 
D |---------------------------------| 
A |---------------------------------| 
E |-0-----0-----0-----0-----0---0---| 
A |-0-----0-----0-----0-----0---0---| 


E |---------------------------------| 
B |---------------------------------| 
G |---------------------------------| 
D |---------------------------------| 
A |---------------------------1-----| 
E |-0-----0-----0-----0-0-0-0-1-----| 
A |-0-----0-----0-----0-0-0-0-1-----| 



2:36-2:45 

guitar 1 
E |---------------------------------| 
B |---------------------------------| 
G |---------------------------------| 
D |-------2-----------------2-------| 
A |-------1-----------------1-------| 
E |-------1-----------------1-------| 
A |-0-----------0-----0---------1---| 

guitar 2 
E |---------------------------------| 
B |---------------------------------| 
G |---------------------------------| 
D |---------------------------------| 
A |---------------------------------| 
E |-0-----0-----0-----0-----0---0---| 
A |-0-----0-----0-----0-----0---0---| 


guitar 1 
E |---------------------------------| 
B |---------------------------------| 
G |---------------------------------| 
D |-------2-------------------------| 
A |-------1-------------------------| 
E |-------1-------------------------| 
A |-0-----------0-----0---0-1-3-0---| 

guitar 2 
E |---------------------------------| 
B |---------------------------------| 
G |---------------------------------| 
D |---------------------------------| 
A |---------------------------------| 
E |-0-----0-----0-----0-0-0-0-0-0---| 
A |-0-----0-----0-----0-0-0-0-0-0---| 
   
   
guitar 1 
E |---------------------------------| 
B |---------------------------------| 
G |---------------------------------| 
D |-------2-----------------2-------| 
A |-------1-----------------1-------| 
E |-------1-----------------1-------| 
A |-0-----------0-----0---------1---| 
    
guitar 2 
E |---------------------------------| 
B |---------------------------------| 
G |---------------------------------| 
D |---------------------------------| 
A |---------------------------------| 
E |-0-----0-----0-----0-----0---0---| 
A |-0-----0-----0-----0-----0---0---| 


guitar 1 
E |---------------------------------| 
B |---------------------------------| 
G |---------------------------0-----| 
D |-------2-------------------2-----| 
A |-------1-------------------1-----| 
E |-------1-----------0-0-0-0-------| 
A |-0-----------0-----0-0-0-0-------| 

guitar 2 
E |---------------------------------| 
B |---------------------------------| 
G |---------------------------------| 
D |---------------------------2-----| 
A |---------------------------1-----| 
E |-0-----0-----0-----0-0-0-0-1-----| 
A |-0-----0-----0-----0-0-0-0-------| 



2:45-2:54 

both guitars 
E |---------------------------------| 
B |---------------------------------| 
G |---------------------------------| 
D |-------2-----------------2-------| 
A |-------1-----------------1-------| 
E |-------1-----------------1-------| 
A |-0-----------0-----0---------1---| 


E |---------------------------------| 
B |---------------------------------| 
G |---------------------------------| 
D |-------2-------------------------| 
A |-------1-------------------------| 
E |-------1-------------------------| 
A |-0-----------0-----0---0-1-3-0---| 

   
E |---------------------------------| 
B |---------------------------------| 
G |---------------------------------| 
D |-------2-----------------2-------| 
A |-------1-----------------1-------| 
E |-------1-----------------1-------| 
A |-0-----------0-----0---------1---| 
    

guitar 1 
E |---------------------------------| 
B |---------------------------------| 
G |---------------------------------| 
D |-------2-------------------------| 
A |-------1-------------------1b2---| 
E |-------1-------------------------| 
A |-0-----------0-----0-----0-------| 
                              p.h. 
guitar 2 
E |---------------------------------| 
B |---------------------------------| 
G |---------------------------------| 
D |-------2-------------------------| 
A |-------1-------------------1b2---| 
E |-------1-------------------------| 
A |-0-----------0-----0-----0-------| 
                              p.h. 

* different pinch harmonics 


************************************ 

| /    slide up 
| \    slide down 
| h    hammer-on 
| p    pull-off 
| ~    vibrato 
| +    harmonic 
| x    Mute note 
| b    Bend 
| pb   Pre-bend 
| br   Bend release 
| pbr  Pre-bend release 
| brb  Bend release bend 
| p.h. pinch harmonic 

************************************ 
		  

See also:

tabs Metallica - Ecstasy of gold tabs Megadeth - Peace Sells tabs Metallica - Seek And Destroy tabs Metallica - Master Of Puppets Solo tabs Metallica - Enter sandman (solo) tabs Metallica - Orion
e-chords

Other versions:

tabs Carnifex - The Scope Of Obsession
auto scroll beats size up size down change color hide chords drawings
tab show chords e-chords YouTube Clip e-chords hide all tabs e-chords go to top tab

share